tabbed by: BD
tuning: 1 whole step down from drop-d from low to high c,g,c,f,a,d
notation: pm = palm mute h = hammer-on s = slide p = pull-off

d----------------------------------|-------------------------------------------
a----------------------------------|-------------------------------------------
f---------10-10--------------------|---------10-10-------------5---------------
c----------x--x-6-5-0-5-6-0-3-3-0--|----------x--x-6-5-0-5-6-0-3---------------
g----------8--8-6-5-0-5-6-0-3-3-0--|----------8--8-6-5-0-5-6-0-3---------------
c-5-6-5-6-------6-5-0-5-6-0-3-3-0--|-5-6-5-6-------6-5-0-5-6-0-3---------------

d--------------------------------|---------------------------------------------
a--------------------------------|---------------------------------------------
f--------------------------------|---------------------------------------------
c--------------------------------|---------------------------------------------
g-----3-5-6-----5---6-----8-8-5--|-----3-5-6-----3---5-------------------------
c-0-0-------0-0---0---0-0--------|-0-0-------0-0---0---0-0-0-0-0-3-/0-0-0-0-0-3
pm. pm. pm pm. pm. pm. pm pm..... h pm.........

d---------------------------------------------------------------------
a---------------------------------------------------------------------
f---------------------------------------------------------------------
c-8-8-8-8-8-8-------------10-10-10-10-5-5-5-5-5-5-----2-3-------------
g-6-6-6-6-6-6-0-0-3-0-0-0--8--8--8--8-3-3-3-3-3-3-0-0-2-3-0-0-0-0-0-0-
c-6-6-6-6-6-6-0-0-3-0-0-0--8--8--8--8-3-3-3-3-3-3-0-0-2-3-0-0-0-0-0-0-
pm......... pm. s pm.........

d-----------------------------------------------------------------
a-----------------------------------------------------------------
f-----------------------------------------------------------------
c-----------------------------------------------------------------
g-----------------------------------------------------------------
c-6-3-6-3-6-3-3-6-3-3-6-3-6-3-8-6-6-6-6-3-6-3-6-3-6-3-3-6-3-3-6-3-
p p p p p p p p p p p p p

d-----------------------
a-----------------------
f-----------------------
c-8---8-8-10-5----------
g-6---6-6--8-3----------
c-6---6-6--8-3----------
s

d------------------------------------------------------------------------
a------------------------------------------------------------------------
f------------------------------------------------------------------------
c-----8------8------8------8------10------5------5------5------5------5--
g---6------6------6------6------8-------3------3------3------3------3----
c-6------6------6------6------8-------3------3------3------3------3------

d------------------------------------------------------------------------
a------------------------------------------------------------------------
f-----10-----10-----10-----10-----12------7------7------7------7------7--
c------8------8------8------8-----10------5------5------5------5------5--
g---6------6------6------6------8-------3------3------3------3------3----
c-6------6------6------6------8-------3------3------3------3------3------




Ваше мнение



Капча