MuDvAyNe-Nothing To Gein

Tuning: Drop D, Down 1 1/2 Steps (B,F#,B,E,G#,C#)

CHORUS:
|-------------------------------------------------------------------|
|-------------------------------------------------------------------|
|-------------------------------------------------------------------|
|-0h2-0-0-2-0-0-2-3-6-6-6-6-6-6-6-0-3-3-3-3-3-3-5-3-2-2-2-2-2-2-2-2-|
|-0h2-0-0-2-0-0-2-3-6-6-6-6-6-6-6-0-3-3-3-3-3-3-5-3-2-2-2-2-2-2-2-2-|
|-0h2-0-0-2-0-0-2-3-6-6-6-6-6-6-6-0-3-3-3-3-3-3-5-3-2-2-2-2-2-2-2-2-|

INTRO:
|-----------------|
|-----------------|
|-----------------|
|-7-7-7-7-7-7-7-7-|
|-5-5-5-5-5-5-5-5-|
|-----------------|

VERSE: (palm mute w/ effect) (not positive about this part)
|---------------------------------|
|---------------------------------|
|---------------------------------|
|---------------------------------|
|-2-2-0-0-2-2-0-0-2-2-0-0-2-2-0-0-|
|---------------------------------|

VERSE B:
|-----------------------------------------------|
|-----------------------------------------------|
|-----------------------------------------------|
|-10-10-10-10-10-10--10--10-10-10-11-10-9-9-9-9-|
|--8--8--8--8--8--8---8---8--8--8--9--8-7-7-7-7-|
|-----------------------------------------------|

VERSE C:
|---------------------------------------------------------------|
|---------------------------------------------------------------|
|-------------------4--------------------4--------------------4-|
|-0h2-0-0-0h2-0-0-0-4--0h2-0-0-0h2-0-0-0-4--0h2-0-0-0h2-0-0-0-4-|
|-0h2-0-0-0h2-0-0-0-2--0h2-0-0-0h2-0-0-0-2--0h2-0-0-0h2-0-0-0-2-|
|-0h2-0-0-0h2-0-0-0----0h2-0-0-0h2-0-0-0----0h2-0-0-0h2-0-0-0---|

|---------------|
|---------------|
|---------------|
|-0h2-0-0-0h2-0-|
|-0h2-0-0-0h2-0-|
|-0h2-0-0-0h2-0-|

BRIDGE:
|--------------------------|
|--------------------------|
|--------------------------|
|-15p14--------15p14-------|
|-------15p14--------15p14-|
|--------------------------|

INTERLUDE:
|------------------------------------|
|------------------------------------|
|---------------------------7-----10-|
|-0-0-0-0-0-0--0--0-0-0-0-0-7-0-0-10-|
|-0-0-0-0-0-0--0--0-0-0-0-0-5-0-0--8-|
|-0-0-0-0-0-0--0--0-0-0-0-0---0-0----|




Ваше мнение



Капча