song: nothing to gein
artist: mudvayne
tunning: B F# B E G# C#
transcribed by: thomas hassler
intro: verse 1
figure 1:
|-------------------------------------------------------------|
|-------------------------------------------------------------|
|-------------------------------------------------------------|
|--------------------------------------------3-3-3-3-3-3------|
|-2/3--0-0--0--0-0--2--3--/5-5-5-5-5-5-5-0---3-3-3-3-3-3/5--3-|
|-2/3--0-0--0--0-0--2--3--/6-6-6-6-6-6-6-0---3-3-3-3-3-3/5--3-|
|-----------------|
|-----------------|
|-----------------|
|-3-3-3-3-3-3-3-3-|
|-3-3-3-3-3-3-3-3-|
|-2-2-2-2-2-2-3-3-|
figure 2:
|--------------------------------------------------------------------------|
|--------------------------------------------------------------------------|
|--------------------------------------------------------------------------|
|-12-12-12-12-12-12-12-12-12-12-12-12-12-12-12-12-12-12-12-12-12-12-12-12--|
|-12-12-12-12-12-12-12-12-10-10-10-10-10-10-10-10--8--8--8--8--8--8--8--8--|
|-12-12-12-12-12-12-12-12-10-10-10-10-10-10-10-10--8--8--8--8--8--8--8--8--|
|-------------------------|
|-------------------------|
|-------------------------|
|-12-12-12-12-12-12-12-12-|
|-7--7--7--7--7--7--7--7--|
|-7--7--7--7--7--7--7--7--|
figure 3:w/ distortion( chorus also )
|--------------------------------------------------------|
|--------------------------------------------------------|
|--------------------------------------------------------|
|--------------------------------------------------------|
|-/3--0-0-2-0-0-2-3--/5-5-5-5-5-5-5-5--3-3-3-3-3-3-/5-3--|
|-/3--0-0-2-0-0-2-3--/6-6-6-6-6-6-6-6--3-3-3-3-3-3-/5-3--|
|-----------------|
|-----------------|
|-----------------|
|-3-3-3-3-3-3-3-3-|
|-3-3-3-3-3-3-3-3-|
|-2-2-2-2-2-2-3-3-|
figure 4: play 4 times(w/wha & P.M.) sheltered life....
|--------------------------------------------------------------------------|
|--------------------------------------------------------------------------|
|-4-4-4-4-4-4-4-4-4-4-4-4-4-4-4-4-4-4-4-4-4-4-4-4-4-4-4-4-4-4-4-4-4-4-4-4-|
|--------------------------------------------------------------------------|
|--------------------------------------------------------------------------|
|--------------------------------------------------------------------------|
figure 5: mommy do you... play 4 times
|-------------------------------------|
|-------------------------------------|
|-----------------------------7-7-7-7-|
|-9-9-9-9-9-9---9--9-9-9-9-9----------|
|-8-8-8-8-8-8---8--8-8-8-9-8--7-7-7-7-|
|-------------------------------------|
figure 6:play 3 times
|--------------------------| |-----------------|
|--------------------------| |-----------------|
|------------------------4-|then|-----------------|
|--------------------------| |-----------------|
|------------------------2-| |---------------0-|
|-2-0-0--0--2-0-0--0--0----| |-2-0-0--0--2-0-0-|
chorus:
figure 7:play 6 times
|-----------|
|-----------|
|-10h9------|
|------10-9-|
|-----------|
|-----------|
P.M.
figure 8:play 4 times |------|
|--------------------------------------|
|--------------------------------------|
|--------------------------------------|
|--------------------------------------|
|------------------------------3-3-3-3-|
|-0-0-0-0-0-0----0---0-0-0-0-0-3-3-3-3-|
figure 9:play 5 times
|--------------------------|
|--------------------------|
|------------------------4-|
|--------------------------|
|------------------------2-|
|-2-0-0--0--2-0-0--0--0----| P.M.
|------|
|--------------------------------------|
|--------------------------------------|
|--------------------------------------|
|--------------------------------------|play 4 times
|------------------------------3-3-3-3-|
|-0-0-0-0-0-0----0---0-0-0-0-0-3-3-3-3-|
outro:distortion(play 3 times
|--------------------------------------------------------|
|--------------------------------------------------------|
|--------------------------------------------------------|
|--------------------------------------------------------|
|-/3--0-0-2-0-0-2-3--/5-5-5-5-5-5-5-5--3-3-3-3-3-3-/5-3--|
|-/3--0-0-2-0-0-2-3--/6-6-6-6-6-6-6-6--3-3-3-3-3-3-/5-3--|
|-----------------|
|-----------------|
|-----------------|
|-3-3-3-3-3-3-3-3-|
|-3-3-3-3-3-3-3-3-|
|-2-2-2-2-2-2-3-3-|
then
outro: part 2- clean(play 4 times)
|-------------------------------------------------------------|
|-------------------------------------------------------------|
|-------------------------------------------------------------|
|--------------------------------------------3-3-3-3-3-3------|
|-2/3--0-0--0--0-0--2--3--/5-5-5-5-5-5-5-0---3-3-3-3-3-3/5--3-|
|-2/3--0-0--0--0-0--2--3--/6-6-6-6-6-6-6-0---3-3-3-3-3-3/5--3-|
|-----------------|
|-----------------|
|-----------------|
|-3-3-3-3-3-3-3-3-|
|-3-3-3-3-3-3-3-3-|
|-2-2-2-2-2-2-3-3-|
then
outro: part 3:
|--------------------------------------------------------------------------|
|--------------------------------------------------------------------------|
|--------------------------------------------------------------------------|
|-12-12-12-12-12-12-12-12-12-12-12-12-12-12-12-12-12-12-12-12-12-12-12-12--|
|-12-12-12-12-12-12-12-12-10-10-10-10-10-10-10-10--8--8--8--8--8--8--8--8--|
|-12-12-12-12-12-12-12-12-10-10-10-10-10-10-10-10--8--8--8--8--8--8--8--8--|
|-------------------------| |-------|
|-------------------------| |-------|
|-------------------------| |-------|
|-12-12-12-12-12-12-12-12-|at the end|-12----|
|-7--7--7--7--7--7--7--7--| |-7-----|
|-7--7--7--7--7--7--7--7--| |-7-----|
there u go.. hope u like it... all credit to mudvayne




Ваше мнение



Капча