-------------------------------------------------------------------------------
Not falling - Mudvayne
-------------------------------------------------------------------------------

Artist: Mudvayne
Albulm: End Of All Things To Come.
Song title: Not falling (Track 3)
Tabbed by: Zero is great man
Tuning: Standard: Right EADGBE

Intro guide:
Index finger = 1, Middle finger = 2, Ring finger = 3, Pinky = 4

Chords:
5 6 = Index finger, or 1
x + x
7 8 = Pinky, or 4

3 = 1
3 = 2
5 = 4

Part 1:
e|------------------------------------------------------|
B|------------------------------------------------------|
G|------------------------------------------------------|
D|-8-8-/-7-7-7-7-7-7-7-7-7-7--8-8-/-7-7-7-7-7-7-7-7-7-7-|
A|-x-x-/-x-x-x-x-x-x-x-x-x-x--x-x-/-x-x-x-x-x-x-x-x-x-x-|
E|-6-6-/-5-5-5-5-5-5-5-5-5-5--6-6-/-5-5-5-5-5-5-5-5-5-5-|

Part 2:
e|---------------------------------------------------------|
B|---------------------------------------------------------|
G|---------------------------------------------------------|
D|-8-8-/-7-7-7-7-7-7-7-7-7-7--8-8-/-7-7-7-7-7-7-7-7-7-7--5-|
A|-x-x-/-x-x-x-x-x-x-x-x-x-x--x-x-/-x-x-x-x-x-x-x-x-x-x--5-|
E|-6-6-/-5-5-5-5-5-5-5-5-5-5--6-6-/-5-5-5-5-5-5-5-5-5-5--3-|

Part 3
e|----------------------------------------|
B|----------------------------------------|
G|--------------------------8-8-8-/-7-7-7-|
D|-5-5--5-5-5-5--5-5-5-5--5-x-x-x-/-x-x-x-|
A|-3-3--3-3-3-3--3-3-3-3--3-6-6-6-/-5-5-5-|
E|-3-3--3-3-3-3--3-3-3-3--3---------------|

Part 4
e|----------------------------------------|
B|----------------------------------------|
G|--------------------------8-8-8-/-7-7-7-|
D|-5-5--5-5-5-5--5-5-5-5--5-x-x-x-/-x-x-x-|
A|-3-3--3-3-3-3--3-3-3-3--3-6-6-6-/-5-5-5-|
E|-3-3--3-3-3-3--3-3-3-3--3---------------|

Part 5
e|----------------------------------------|
B|----------------------------------------|
G|--------------------------8-8-8-/-7-7-7-|
D|-5-5--5-5-5-5--5-5-5-5--5-x-x-x-/-x-x-x-|
A|-3-3--3-3-3-3--3-3-3-3--3-6-6-6-/-5-5-5-|
E|-3-3--3-3-3-3--3-3-3-3--3---------------|

Part 6
e|--------------|
B|--------------|
G|--------------|
D|-5-5--5-5-5-5-|
A|-3-3--3-3-3-3-|
E|-3-3--3-3-3-3-|

| / slide up
| slide down
| h hammer-on
| p pull-off
| ~ vibrato
| + harmonic
| x Mute note

That's about it, This sounds pretty awesome without going as far as changing
the tunning. This is also part of the chorus. Hope you like it.
Feel free to comment or correct.
===============================================================================




Ваше мнение



Капча