Tuned:1 Step Down in drop-d CGCFAD
INTRO: PALM MUTE= //////
D-------------------------------------------------------------------------------
A-------------------------------------------------------------------------------
F-------------------------------------------------------------------------------
C-------------------------------------------------------------------------------
G-0000-000-000-0000-000-000-0000-000-000-0000-000-000---2300-7-230-7-2300-5-----
C-0000-000-000-0000-000-000-0000-000-000-0000-000-000---2300-7-230-7-2300-5-----
//// /// ////
2ND PART X 2
D-------------------------------------------------------------------------------
A-------------------------------------------------------------------------------
F-------------------------------------------------------------------------------
C-------------------------------------------------------------------------------
G-230-5-2300-3-230-3-2300-2-230-2---12-12-12-12-12-12--10-10-10-10-10'12--------
C-230-5-2300-3-230-3-2300-2-230-2-----------------------------------------------
/// //// /// //// ///
VERSES X5
D-------------------------------------------------------------------------------
A-------------------------------------------------------------------------------
F-------------------------------------------------------------------------------
C-------------------------------------------------------------------------------
G-9-9-9-9-9-9--8-8-8-8-8-8-------12-12-12-12-12-12--10-10-10-10-10'12--9-9-9-9--
C-------------------------------------------------------------------------------
CHORUS X4
D-------------------------------------------------------------------------------
A-------------------------------------------------------------------------------
F------------------------------------------7777-----------7777-------775555-----
C------------------------------------------xxxx-----------xxxx-------xxxxxx-----
G-9-9--8-8-8-8-8-8----------------320-230--5555--320-320--5555--320--553333-----
C---------------------------------320-320--------320-320--------320-------------

D-------------------------------------------------------------------------------
A-------------------------------------------------------------------------------
F---------------5----------------9----------------------------------------------
C---------------x----------------x----------------------------------------------
G-320032003200--3--320032003200--7----------------------------------------------
C-320032003200-----320032003200-------------------------------------------------
//////////// ////////////
Well there it listen to the song to figure out where everything goes and the
number of times he plays it. Sorry I couldn't figure out the breakdown.
Any comments or questions my e-mail address is [email protected]




Ваше мнение



Капча