Mudvayne - Live Bass Solo
Submitted By: Misery
EMail: [email protected]
W H E. S +Q +H +Q Q H E. S +E E
|----------|----------21-(21)--|-(21)----(21)-----|----------21-(21)-----|
|----------|------19-----------|------------------|------19--------------|
|----------|-9-----------------|------------------|-9----------------21--|
|----------|-------------------|------------------|----------------------|
+Q E S S S E S S E S H E. S +Q
|-------------8-----8-----|------21-----------|
|-------------8-----8-----|----------19-(19)--|
|-(21)--9---9-----9-----9-|-9-----------------|
|-------------------------|-------------------|
+H +Q Q H E. S +E E
|------------------|----------21-(21)-----|
|-(19)----(19)-----|------19--------------|
|------------------|-9----------------21--|
|------------------|----------------------|
6/4 4/4
+Q Q Q H S S S S E S S S S S S S S E Q
|---------------------------|------------------------|
|---------------------------|---------------2--------|
|-(21)-------------5--9-7-5-|-----7-7-9-7------------|
|--------------------12---9-|-2-2---------2----------|
E S S S S S S S S S S S S E E S S S S S S S S E Q
|-----------------------------|---------------------2---|
|---------------2---4---2-----|---------------2-----2---|
|-----7-7-9-7-----------------|-----7-7-9-7-------------|
|-2-2---------2---------------|-2-2---------2-----------|
E S S S S S S S S E Q E S S S S S S S S E Q E S S S S S S S S S S Q
|-------------------2-4--|------------------------|--------------------------|
|---------------2---2-4--|---------------2--------|---------------2---4---7--|
|-----7-7-9-7------------|-----7-7-9-7------------|-----7-7-9-7--------------|
|-2-2---------2----------|-2-2---------2----------|-2-2---------2------------|
E S S S S S S S S S S S S S S
|-------------------------------|
|---------------2---4---2-----1-|
|-----7-7-9-7-------------------|
|-2-2---------2-------------2---|
S S S S S S S S S S S S S E. H E. S +Q
|-----4---------2---2-----2-4--|----------21-(21)--|
|---1-----1-2------------------|------19-----------|
|---------------------9--------|-9-----------------|
|-2-----2-----2---2-----2------|-------------------|
+H +Q Q H E. S +E E
|-(21)----(21)-----|----------21-(21)----|
|------------------|------19-------------|
|------------------|-9----------------21-|
|------------------|---------------------|
+Q E S S S E S S E S H E. S +Q
|-------------8-----8-----|------21------------|
|-------------8-----8-----|----------19-(19)---|
|-(21)--9---9-----9-----9-|-9------------------|
|-------------------------|--------------------|
+H +Q Q H E. S +E E +H S S E S S E
|------------------|----------21-(21)----|---------------------|
|-(19)----(19)-----|------19-------------|---------------------|
|------------------|-9----------------21-|-(21)----7-9-7-------|
|------------------|---------------------|---------------9-7-5-|
S S E S S S S S S S S S S S S S S S S E E S S S S E E
|-------------------------------|---------------------1-2-|
|-------------------------------|---------------------1-2-|
|-------6-----7---7-6-----------|-----0---7-9-----6-------|
|-2---------2---------7-4-5-4-5-|-2-----------2-----------|
S S E S S S S S S S S S S S S S S S S E E S S S S E E
|-------------------------------|---------------------2-4-|
|-------------------------------|---------------------2-4-|
|-------6-----7---7-6-----------|-----0---7-9-----6-------|
|-2---------2---------7-4-5-4-5-|-2-----------2-----------|
S S E S S S S S S S S S S S S S S E E E E E S S S S
|-------------------------------|----------------8----8--9--|
|-------------------------------|---------------------------|
|-------6-----7---7-6-----------|---------7---7-11---11-12--|
|-2-2-------2---------7-4-5-4-5-|-5---7-9---9---------------|
S S E S S S S S S S S S S S S S S S S E S S S S S S E S S
|-------------------------------|-------------------------------|
|-------------------------------|-------------------------------|
|-------6-----7---7-6-----------|---0-0---7-9-9-0-7-7---9-12-12-|
|-2---------2---------7-4-5-4-5-|-2-----------------------------|
S S S S S S S S S S S S S S S S
|-----------------------------------------------|
|-----------------------------------------------|
|-----------------------------------------------|
|-0-12-12-12-12-12-12-12-12-12-12-12-12-12-12---|
S S S S S S S S S S S S S S S S
|------------------------------------|
|------------------------------------|
|----------------------0-2-2-2-0-----|
|-12-14-12-9-7-5-2-2-2-----------4-5-|
8/4
E E E E S S S S S S S S S S E Q Q Q
|----------------------------------------|
|----------------------------------------|
|---0-2-4-7-9-0---------7---9------------|
|-2-------------7-5-7-9------------------|
E S S E S S S S S S S S S S S S S S S S S S S S S S S S S S
|---------------------------------------------7-9---------------|
|---------------------------------------------------------------|
|---0-0-2-4---7-9-0---------7---9-----0-2-4-9-----12-14-2---0-2-|
|-2-----------------7-5-7-9---------2---------------------2-----|
E S S E S S S S S S S S S S S S S S E E E E E E
|---------------------------------------2---1---0-|
|-------------------------------------------------|
|---0-0-2-4---7-9-0---------7---9-----0-----------|
|-2-----------------7-5-7-9---------2---5-4-4-3-3-|
E S S E S S S S S S S S S S S S S S S S S S S S S S S S E
|-----------------------------------------------------------|
|-----------------------------------------------------------|
|---0-0-2-4---7-9-0---------7---9-----7-7-----7-7-7-7-7-7---|
|-2-----------------7-5-7-9---------2-------2---------------|
E S S E E S S S S +S S E S E S E S S S S S S Q
|----------------------------------------------------------2--|
|----------------------------------------------------------2--|
|---0-0-2-4-7---7-9-(9)-9-11-14-16-19-21-22-23-23-21-21-20----|
|-2-----------------------------------------------------------|
E S S S S S S S S S S S S S S S S S S S S S S S S S S S S S S
|----------------------------------------------------------------|
|----------------------------------------------------------------|
|---0-0-2-4-4-4-4---7---0-------0-0---5-7---5-----2-2-2---2---0--|
|-2---------------2---9---7-5-2-----2-----2---7-2-------2---2----|
S S S S S S S S S S E S S S S S S S S S S S S S S S S S S S S
|---------------------------14-11-10-8-5---------------------------14-16-14-11-9-8--|
|------------------------------------0-------------------------------------------0--|
|-7-9-12-14-14-16-19-21------------------7-9-12-14-14-16-19-21----------------------|
|-----------------------2-2----------2-2-----------------------2-2------------------|
S S S S S S S S S S E E S S S S S S S S S S S S S S S S S S
|---------------------------14-11-----------6---6-4-6-4-1-----1-------|
|-------------------------------------2-4-2-----------------6---------|
|-7-9-12-14-14-16-19-21-----------------------------------------------|
|-----------------------2-2-------2-2---------2-----------2-------2-2-|
S S S S S S S S S S S S S S S S S S E E S S Q S S S S
|-2-14-------13-------12-------11---10---------------------------------|
|----------------------------------------------------------------------|
|------12-12----11-11----10-10---------19-17---7-7-----7-7----7-10-----|
|--------------------------------------23-----------------------14---1-|
S S S S S S S S S S E S S E S S S S Q Q E. S
|-----------------2--------------------------------|
|--------------------------------------------------|
|-2-4-7-9-12-14---------7-9----------------------0-|
|---------------1-----1---------7-6-5-4-------3--4-|
S S S S S S S S S S S S E E S S E E S S E S S S S S S
|-2-14-------13-------12-------11---10---------------------------------------|
|----------------------------------------------------------------------------|
|------12-12----11-11----10-10------------------------------9-10----10--8----|
|----------------------------------------12-12-----12-12---13----12-14-12----|
S S E Q Q Q Q Q Q Q
|----------------------------*|
|----------------------------*|
|----------------------------*|
|-2--------------------------*|




Ваше мнение



Капча