Heavy Distortion:
PM = Palm muting
/ = Slide Up
= Slide Down
Drop D Tuning

First Part--- (Only played one time)
PM...........
E------------
B------------
G------------
D--------6---
A-5-5-5-5-5--
D------------
Then this a couple times....(Rift A)
PM......................
E--------------------
B--------------------
G--------------------
D--------6-------6---
A-5-5-5-5-5-5-5-5-5--
D--------------------
Then this....(Rift B)
PM........................
E--------------------------
B--------------------------
G--------------------7-7-7-
D--------6-------6---6-6-6-
A-5-5-5-5-5-5-5-5-5--5-5-5-
D--------------------------
Then this....(Rift C)
PM........................
E----------------888-----------
B-------------------666-888----
G--------------------------555-
D--------6---------------------
A-5-5-5-5-5-5-5-5--------------
D------------------------------
Play Rifts A, B, C, D, as played in the song......
Then comes this...............(Rift D)
E------------------------------------
B------------------------------------
G------------------------------------
D--------6---------------------------
A-5-5-5-5-5-5-5-5-9/109/109/109---
D------------------------------------

After this comes some heavy power cords. I havent figured them out yet,
but here's the begining anyway!!




Ваше мнение



Капча