Author/Artist: Mudvayne
Title: Dig
Album: L.D.50
Transcribed by: Matthew Knott
Email: [email protected]

Again the timing's messed up, so just use the riffs and
ignore my placement. This is fairly simple, you will have
no problem with this one.
If anybody has any comments/corrections feel free to email me

Tuning : Drop B
B, f#, b, e, g#, c#

-------------|---------------|----------------|-------------------------------
-------------|---------------|----------------|-------------------------------
-------------|-----9b-----9b-|-----9b---------|-------------------------------
-----8-----8-|---------------|------------8-\-|-------------------------------
-----7-----7-|---------------|------------7-\-|-------------------------------
-0-0---0-0---|-0-0----0-0----|-0-0----0-0-----|-------------------------------
(intro) (x4) (x3)

-----------------------|---------------|--------------------------------------
-----------------------|---------------|--------------------------------------
-----------------------|---------------|--------------------------------------
-----------------------|-----------8-\-|--------------------------------------
-2b-2--0-2-2-3-3-2-0-2-|-2b-2------7-\-|--------------------------------------
-2b-2--0-2-2-3-3-2-0-2-|-2b-2--0-0-----|--------------------------------------
p.m............ p.m.
(Chorus)

---------------------|---------------------|----------------------------------
---------------------|---------------------|----------------------------------
---------------------|---------------------|----------------------------------
-----2---------------|-----2---------------|----------------------------------
-2-2-----2-2-2-3-0-2-|-2-2-----2-2-2-3-0-2-|----------------------------------
-2-2-----2-2-2-3-0-2-|-2-2-----2-2-2-3-0-2-|----------------------------------
p.m p.m........ p.m p.m........
(verse)

-----------------------|------------------------------------------|-----------
-----------------------|------------------------------------------|-----------
-----------------------|-12-12-12-12-12-12-12-12-12-12-12-12------|-----------
-----2-----------------|-x--x--x--x--x--x--x--x--x--x--x--x-------|-----------
-2-2-----2-2-2-3-0-2-/-|-10-10-10-10-10-10-10-10-10-10-10-10------|-----------
-2-2-----2-2-2-3-0-2-/-|--------------------------------------14\-|-----------
p.m p.m..........

-------------|-------------|-------------|-------------|------------|---------
-------------|-------------|-------------|-------------|------------|---------
-------------|-------------|-------------|-------------|------------|---------
-------------|-------------|-------------|-------------|------------|---------
-0-1-2-5-4-3-|-2b-2--------|-2b-2--------|-2b-2--------|-2b-2-------|---------
-0-1-2-5-4-3-|-2b-2--------|-2b-2--------|-2b-2--------|-2b-2-------|---------
p.m........
(the bit just before the bridge)

---------------------|--------------------------------------------------------
---------------------|--------------------------------------------------------
---------------------|--------------------------------------------------------
---------------------|--------------------------------------------------------
-2b-2-x--x-x-x-x-2-2-|--------------------------------------------------------
-2b-2-x--x-x-x-x-2-2-|--------------------------------------------------------
p.m
("dig, huh c'mon m***af***a..")

----------------|------------------|---------|-----------|--------------------
----------------|------------------|---------|-----------|--------------------
----------------|------------------|---------|-----------|--------------------
----------------|------------------|---8---8-|--8-/--8-/-|--------------------
-2-2------------|------------------|---7---7-|--7-/--7-/-|--------------------
-2-2-5b-5--5b-5-|-5b-5--5b-5--5b-5-|---------|-----------|--------------------
p.m
(bridge)

----------------|----------------|--------------------------------------------
----------------|----------------|--------------------------------------------
----------------|----------------|--------------------------------------------
----------------|----------------|--------------------------------------------
-2-2-5b-5--5b-5-|-2-2-5b-5--5b-5-|-0-1-2-5-4-3--------------------------------
-2-2-5b-5--5b-5-|-2-2-5b-5--5b-5-|-0-1-2-5-4-3--------------------------------
p.m p.m p.m........

Thats all there is to it basically, contact me if i've missed any bits out,
or if anyone has any corrections.




Ваше мнение



Капча