by Slipknot #7
INTRO
C#|-------------|
G#|-------------|
E|-------------|
B|--0-0---0-0--|
F#|--0-0---0-0--|
B|--0-0---0-0--|

C#|--------------------------------------------------------
G#|--------------------------------------------------------
E|------21b-(21)------21-(21)------21-(21)------21-(21)---
B|--0-0-----------0-0----------0-0----------0-0-----------
F#|--0-0-19b-(19)--0-0-19-(19)--0-0-19-(19)--0-0-19-(19)---
B|--0-0-----------0-0----------0-0----------0-0-----------
Chorus
C#|------------------------------|x3
G#|------------------------------|
E|------------------------------|
B|------------------------------|
F#|--2h3---2-------0--2--3-2-0-2-|
B|--2h3---2-------0--2--3-2-0-2-|
C#|-----------------------------|
G#|-----------------------------|
E|--------------------------3--|
B|--------------------------2--|
F#|-2h3---2------------0--0--1--|
B|-2h3---2------------0--0-----|
VERSE
x3
C#|--------------------------------------------------------
G#|--------------------------------------------------------
E|--------------------------------------------------------
B|--------------------------------------------------------
F#|--2--2----------2---2--2-----2--2-----------------------
B|--2--2----------2---2--2-----2--2-----------------------
C#|----------------------------------------------------|
G#|----------------------------------------------------|
E|-/12--12--12--12--12--12--/-12--12--12--12--12------|
B|----------------------------------------------------|
F#|-/10--10--10--10--10--10--/-10--10--10--10--10------|
B|------------------------------------------------14/-|
PRE - BRIDGE
C#|------------------------------------------|
G#|------------------------------------------|
E|------------------------------------------|
B|------------------------------------------|
F#|-2h3---2------0--1--2-----5------4---3----|
B|-2h3---2------0--1--2-----5------4---3----|
BRIDGE
C#|-------------------------------------------------------|
G#|-------------------------------------------------------|
E|-------------------------------------------------------|
B|-------------------------------------------------------|
F#|-2h3-2--2---2---2-------5-------5-------5------5------5|
B|-2h3-2--2---2---2--5h6--5--5h6--5--5h6--5--5h6-5--5h6-5|
C#|------------------------------------------|
G#|------------------------------------------|
E|------------------------------------------|
B|------------------------------------------|
F#|-2h3---2------0--1--2-----5------4---3----|
B|-2h3---2------0--1--2-----5------4---3----|
OUTRO

C#|----------------------------------------------------|
G#|----------------------------------------------------|
E|----------------------------------------------------|
B|----------------------------------------------------|
F#|--2h3---2-------------0--0--3-2-0-2--2h3--2---2h3---|
B|--2h3---2-------------0--0--3-2-0-2--2h3--2---2h3---|
C#|----------------------------------------------------|x3
G#|----------------------------------------------------|
E|----------------------------------------------------|
B|----------------------------------------------------|
F#|--2h3---2----3-2-0-2--2h3--2------------------------|
B|--2h3---2----3-2-0-2--2h3--2------------------------|
C#|--------------|
G#|--------------|
E|-----------3--|
B|-----------2--|
F#|-----0--0--1--|
B|-----0--0-----|




Ваше мнение



Капча