Author/Artist: MuDvAyNe
Title: Death Blooms
Album: L.D. 50
Transcribed by: Matthew Knott
Email: [email protected]
I'm sure this is 100% so enjoy. I saw the live video,
so this is how Gurgg plays it live anyway. Just piece
the song together from this, its in order.
If you have any corrections, feel free to email me.
Tuning : B, f#, b, e, g#, c#.
(intro)
----------------------------------|-------------------------------------------
----------------------------------|-------------------------------------------
------------------7-----7-----7---|-------------------------------------------
--------------------7-----7-----7-|------5-7---5-7---5-7----------------------
-3-2-2-3-2-2-2-0------7-----7-----|----------7-----7--------------------------
-3-2-2-3-2-2-2-0------------------|-------------------------------------------
N.H............ OR N.H..............
(fill)
------------------------------|-------------------------------|---------------
------------------------------|-------------------------------|---------------
------------------------------|-------------------------------|---------------
------------------------------|-------------------------------|---------------
--8-0-7-8-0-7-8-0-5-0-3-5-2-0-|--3\2-0-3/5-0-2/3--3-----3-----|---------------
--8-0-7-8-0-7-8-0-5-0-3-5-2-0-|--3\2-0-3/5-0-2/3----2-2---2-2-|---------------
Play four times
(verse)
------------------------------------------------------------------------------
------------------------------------------------------------------------------
------------------------------------------------------------------------------
------------------------------------------------------------------------------
--3-----3------------------3-----3--------------------------------------------
----2-2---2-2----------------2-2---2-2----------------------------------------
(Pre-Chorus)
------------------------------------------------------------------------------
------------------------------------------------------------------------------
------------------------------------------------------------------------------
------------------------------------------------------------------------------
--3-2-2-3-2-2-3-2-2-3-2-2-3-2-0-2---------------------------------------------
--3-2-2-3-2-2-3-2-2-3-2-2-3-2-0-2---------------------------------------------
(Chorus)
-------------------------------------------------|----------------------------
-----------------------------------3-3-1-1-------|----------------------------
-----------------------------------2-2-0-0-------|----------------------------
-----------------------------------0-0-2-2-------|----------------------------
--0-7-8-0-7-8-0-7-8-0-5-0-3-5-2p0--0-0-3-3--/8-8-|----------------------------
--0-7-8-0-7-8-0-7-8-0-5-0-3-5-2p0-----------/8-8-|----------------------------
(repeat)
(bridge)
------------------------------------------------------------------------------
------------------------------------------------------------------------------
------------------------------------------------------------------------------
------------------------------------------------------------------------------
--1-----------1---------------------------------------------------------------
----2-0-3-2-0---2-0-3-2-0-0-0h-3----------------------------------------------
P.M....... P.M......
------------------------------|-----------------------------------------------
------------------------------|-3-----1-----3---------------------------------
------------------------------|-2-----0-----0---------------------------------
--3-2-0-3-2-0-3-2-0-3-2-0-0-0-|-0-----2-----0---------------------------------
--3-2-0-3-2-0-3-2-0-3-2-0-0-0-|-------3-----2---------------------------------
--3-2-0-3-2-0-3-2-0-3-2-0-0-0-|-----------------------------------------------
------------------------------------------------------------------------------
--------------------------3--1--3---------------------------------------------
--------------------------2--0--0---------------------------------------------
--------------------------4--2--0---------------------------------------------
--------------------------0--3--2---------------------------------------------
--3p0-0-3p0-0-3p0-0-0-----------------3p0-0-3p0-0-3p0-0-0---------------------
------------------------------|-----------------------------------------------
------------------------------|-----------------------------------------------
------------------------------|-----------------------------------------------
------------------------------|-----------------------------------------------
--3p0-0-3p0-0-3p0-0-0------3--|--3p0-0-3p0-3p0-0-0------3---------------------
--3p0-0-3p0-0-3p0-0-0--0-0----|--3p0-0-3p0-3p0-0-0--0-0-----------------------
P.M... P.M...
------------------------------|-------------------------------|---------------
------------------------------|-------------------------------|---------------
------------------------------|-------------------------------|---------------
------------------------------|-------------------------------|---------------
--3p0-0-3p0-0-3p0-0-0------8--|--3p0-0-3p0-0-3p0-0-0------10--|---------------
--3p0-0-3p0-0-3p0-0-0--0-0----|--3p0-0-3p0-0-3p0-0-0--0-0-----|---------------
P.M... P.M....
------------------------------|-----------------------------------------------
------------------------------|-----------------------------------------------
------------------------------|-----------------------------------------------
------------------------------|-----------------------------------------------
--3p0-0-3p0-0-3p0-0-0------12-|--3p0-0-3p0-0-3p0---0--------------------------
--3p0-0-3p0-0-3p0-0-0--0-0----|--3p0-0-3p0-0-3p0---0--------------------------
P.M.... let ring
(Outro)
-----------------------------------|------------------------------------------
-----------------------------------|------------------------------------------
-----------------------------------|------------------------------------------
-----------------------------------|------------4-----------------------------
-----------------------------------|------------3--3-0-0-3-5-0-0--------------
--0--0----0----0----0----0----3--2-|--0----0-------3-0-0-3-5-0-0--------------
P.M..
--------------------------------|---------------------------------------------
--------------------------------|---------------------------------------------
--------------------------------|-----------------5---------------------------
--------------------------------|-----------------4---------------------------
-----------------3\2-3/5-0-2/3--|-----------------3---------------------------
--0----0----0----3\2-3/5-0-2/3--|--0--0----0----0-----------------------------
(hold until end)




Ваше мнение



Капча