Cradle-Mudvayne
L.D. 50
Drop B:
B F# B E G# C#
Intro: (0:00) w/ flanger
x12
e--------------------------------------------------
b-------------------------------------15-15-15-15--
g--------------------------------------------------
d-13p12-12-13p12-12-13p12-12-13p12-12--------------
a--------------------------------------------------
d--------------------------------------------------
(0:36)
x4
e---------------------------------------
b---------------------------------3-----
g---------------------------------2-----
d---------------------------------0-----
a-1p0-0-1p0-0--0-----x-1p0-0-1p0--------
d-1p0-0-1p0-0--0-----x-1p0-0-1p0--------
Verse: (0:48)
x8
e--------------------------------------------------
b-------------------------------------15-15-15-15--
g--------------------------------------------------
d-13p12-12-13p12-12-13p12-12-13p12-12--------------
a--------------------------------------------------
d--------------------------------------------------
(1:12)
x4
e---------------------------------------
b---------------------------------3-----
g---------------------------------2-----
d---------------------------------0-----
a-1p0-0-1p0-0--0-----x-1p0-0-1p0--------
d-1p0-0-1p0-0--0-----x-1p0-0-1p0--------
(1:24)
x4
e-----------------------------------------------------------------
b-----------------------------------------------------------------
g-----------------------------------------------------------------
d-----------------------------------------------------------------
a-----------------------------------------------------------------
d-0h1--0------0h1-0-------0h1-0h1-0h1--0------0h1-0-------0h1-0h1-
(1:36)
x4
e-----------------------------------------------------------------
b-----------------------------------------------------------------
g-----------------------------------------------------------------
d-------------------5/7---7/8-------------------------------------
a-4p3-0-3p0-0-3/4-0-3/5-0-5/6----4p3p0-3----x-x-x-3/5---x-5/6---x-
d-4p3p0-3p0-0-3/4-0-----0--------4p3p0-3----x-x-x-3/5---x-5/6---x-
(1:55)
x6
e-----------------------------------------------------------------
b-----------------------------------------------------------------
g-----------------------------------------------------------------
d-----------------------------------------------------------------
a-----------------------------------------------------------------
d-0h1--0------0h1-0-------0h1-0h1-0h1--0------0h1-0-------0h1-0h1-
(2:13)
x2
e-----------------------------------------------------------------
b-----------------------------------------------------------------
g-----------------------------------------------------------------
d-----------------------------------------------------------------
a-------------3-----5-----6-5-----------------3-----5-----6-5-----
d-0h1h2-0h3h4---4p3---4p3-----4b--0h1h2-0h3h4---4p3---4p3-----4b--
(2:24)
x4, pm
e--------------------------------------------------
b--------------------------------------------------
g--------------------------------------------------
d-17-17-17-17-17-17-17-17-17-17-17-17-17-17-17-17--
a-15-15-15-15-15-15-15-15-15-15-15-15-15-15-15-15--
d--------------------------------------------------
(2:35)
x2
e-----------------------------------------------------------------
b-----------------------------------------------------------------
g-----------------------------------------------------------------
d-----------------------------------------------------------------
a-0h1h2-0-3h4-3h4-3-5-4-3-6-5---4-0h1h2-0-3h4-3h4-3-5-4-3-6-5---4-
d-0h1h2-0-3h4-3h4-3-5-4-3-6-5---4-0h1h2-0-3h4-3h4-3-5-4-3-6-5---4-
(2:45)
x2, pm
e-----------------------------------------------------------------
b-----------------------------------------------------------------
g-----------------------------------------------------------------
d-----------------------------------------------------------------
a-------------3-------------------------------3-------------------
d-0-1-2-0-3-4---4-3-5-4-3-6-5---4-0-1-2-0-3-4---4-3-5-4-3-6-5---4-
(2:56) (3:05)
x3,pm
e--------------------------------- ------------------------------
b--------------------------------- ------------------------------
g--------------------------------- ------------------------------
d--------------------------------- ------------------------------
a-0----3-----5----0---0--5-6---0-- -0----3-----5--x-x-----0h3/---
d-0----3-----5----0---0--5-6---0-- -0----3-----5--x-x-----0h3/---
(3:08) (3:17)
x3
e--------------------------------- ------------------------------
b--------------------------------- ------------------------------
g--------------------------------- ------------------------------
d--------------------------------- ------------------------------
a-0----3-----5----0---0--5/6---0-- -0----3-----5--x-x-----0-0----
d-0----3-----5----0---0--5/6---0-- -0----3-----5--x-x-----0-0----
e-----------------------------------------------------------------
b-----------------------------------------------------------------
g-----------------------------------------------------------------
d------------------------------------------------5----------------
a-0----3-----5----0---0--5/6---0---0----3-----5--3--5--3--5--3--2-
d-0----3-----5----0---0--5/6---0---0----3-----5-----5--3--5--3--2-
e-----------------------------------------------------------------
b-----------------------------------------------------------------
g-----------------------------------------------------------------
d-----------------------------------------------------------------
a-0----3-----5----0---0--5/6---0---0----3-----5--x-x-----0-0------
d-0----3-----5----0---0--5/6---0---0----3-----5--x-x-----0-0------
(3:33)
x2
e--------------------------------------------------
b-------------------------------------15-15-15-15--
g--------------------------------------------------
d-13p12-12-13p12-12-13p12-12-13p12-12--------------
a--------------------------------------------------
d--------------------------------------------------
Verse 2: (3:39)
x8
e--------------------------------------------------
b-------------------------------------15-15-15-15--
g--------------------------------------------------
d-13p12-12-13p12-12-13p12-12-13p12-12--------------
a--------------------------------------------------
d--------------------------------------------------
(4:03)
x8
e---------------------------------------
b---------------------------------3-----
g---------------------------------2-----
d---------------------------------0-----
a-1p0-0-1p0-0--0-----x-1p0-0-1p0--------
d-1p0-0-1p0-0--0-----x-1p0-0-1p0--------
(4:27)
e----------------------------------------------
b----------------------------------------------
g----------------------------------------------
d----------------------------------------------
a----------------------------------------------
d-0h1-0--0h1-0--0h1-0h1-0h1-0--0h1-0--0h1-0h1--
(4:30)
x4
e----------------------------------------------
b----------------------------------------------
g----------------------------------------------
d----------------------------------------------
a-0h1-0--0h1-0--0h1-0h1-0h1-0--0h1-0--0h1-0h1--
d-0h1-0--0h1-0--0h1-0h1-0h1-0--0h1-0--0h1-0h1--
(4:42)
pm
e-----------------------------------------------------------------
b-----------------------------------------------------------------
g-----------------------------------------------------------------
d-----------------------------------------------------------------
a-----------------------------------------------------------------
d-5-4-3-0-4-3-0-0-5-4-3-0-4-3-0-0-5-4-3-0-4-3-0-0-5-4-3-0-4-3-0-0-
(4:48)
x4
e-----------------------------------------------------------------
b-----------------------------------------------------------------
g-----------------------------------------------------------------
d-------------------5/7---7/8-------------------------------------
a-4p3-0-3p0-0-3/4-0-3/5-0-5/6----4p3p0-3----x-x-x-3/5---x-5/6---x-
d-4p3p0-3p0-0-3/4-0-----0--------4p3p0-3----x-x-x-3/5---x-5/6---x-
Outro: (5:07)
pm
e-----------------------------------------------------------------
b-----------------------------------------------------------------
g-----------------------------------------------------------------
d-----------------------------------------------------------------
a-----------------------------------------------------------------
d-5-4-3-0-4-3-0-0-5-4-3-0-4-3-0-0-5-4-3-0-4-3-0-0-5-4-3-0-4-3-0-0-
(5:12)
e-------------------------------
b-------------------------------
g-------------------------------
d-------------------------------
a-0h1--0----0h1-0----0h1-0------
d-0h1--0----0h1-0----0h1-0------
that’s all
trevor jones
[email protected]




Ваше мнение



Капча