no one has tabbed the song so i did
I also did Army of me & inside the clinic
Tuning:CGCFAD Intro:
...... ....
C-3p1-00----------------1-00----------------
G-3p1-00----------------1-00----------------
C-----00------------------00----------------
F-------------------------------------------
A-------------------------------------------
D-------12p11-12p11~~~12----12p11-12p11~~~12
..... .....
C-000---------------1-1-0--------------
G-000---------------1-1-0--------------
C-----------------------0--------------
F-------------------------------------- verses
A--------------------------------------
D----12p11-12p11-12------12p11-12p11-12
chorus
.............. ... .. ....
C-0-2-1-0-1-0-00-3-0-0-3-00-3-0000-3
G-0-2-1-0-1-0-00-3-0-0-3-00-3-0000-3
C----------------3-----3----3------3
F-----------------------------------
A-----------------------------------
D-----------------------------------
Bridge
........
C--------------------00000000-----
G--------8----5-------------------
C-5h8-6----5----------------------
F--------------------------------- repeat a couple a times
A---------------------------------
D---------------------------------
outro: w/volume pedal (Fade)
C-00000-00---------------------------
G------0--0--------------------------
C------x--x--------------------------
F------2--2--------------------------
A------------------------------------
D------------------------------------
put it together & ya get a pretty heavy song
Key
... palm mute
h-- hammer
p-- pull off
C
G
C
F
A
D




Ваше мнение



Капча