-1 - Mudvayne
L.D. 50
Drop B:
B F# B E G# C#
Intro: (0:00)
Fig. 1
e--------------------------------------------------------------------
b--------------------------------------------------------------------
g--------------------------------------------------------------------
d-0-0-0-0-0-0-0-0-0-0-0-0-0-0--0--0-0-0-0-0-0-0-0-0-0-0-0-0-0-0-0-0--
a-8-8-8-8-8-8-8-8-8-8-8-8-8-8-10-10-7-7-7-7-7-7-7-7-7-7-7-7-7-7-0-0--
d--------------------------------------------------------------------
Verses: (0:09)-(1:10)
Fig. 1 x4
Chorus: (0:50)-(1:51)
x4
e-----------------------------------------------------------------
b-----------------------------------------------------------------
g-----------------------------------------------------------------
d-----------------------------------------------------------------
a-3p0-0h4-3p0-----3p0-0-0--0------3p0-0h4-3p0-----3p0-0-0--0------
d-3p0-----3p0-----3p0-0-0--0------3p0-----3p0-----3p0-0-0--0------
(2:11)
x2
e-----------------------------------------------------------------
b-----------------------------------------------------------------
g-----------------------------------------------------------------
d-----------------------------------------------------------------
a-3p0-0h4-3p0-----3p0-0-0--0------3p0-0h4-3p0-----3p0-0-0--0------
d-3p0-----3p0-----3p0-0-0--0------3p0-----3p0-----3p0-0-0--0------
Pre-Bridge:
x11
e----------------------------------
b----------------------------------
g----------------------------------
d----------------------------------
a-2h3-2h3-5p3-2h3-2h3-2h3-5p3-5/6--
d-2h3-2h3-5p3-2h3-2h3-2h3-5p3-5/6--
Bridge: w/ wah & echo effects
(2:48)
x7
e-------------12------------------------------------------------
b-12--------------12------12br----------12------12--------------
g-------------------------------14----------14------14--13------
d-----15--14----------15------------15----------------------14--
a---------------------------------------------------------------
d---------------------------------------------------------------
Chorus:
(3:27)
x4
e-----------------------------------------------------------------
b-----------------------------------------------------------------
g-----------------------------------------------------------------
d-----------------------------------------------------------------
a-3p0-0h4-3p0-----3p0-0-0--0------3p0-0h4-3p0-----3p0-0-0--0------
d-3p0-----3p0-----3p0-0-0--0------3p0-----3p0-----3p0-0-0--0------
Outro: (3:47)
e-----------------------------------------------------------------
b-----------------------------------------------------------------
g-----------------------------------------------------------------
d-----------------------------------------------------------------
a-3p0-0h4-3p0---3p0-0-0--0-x-x--x-3p0-0h4-3p0---3p0-0-0-3-x-x-x-x-
d-3p0-----3p0---3p0-0-0--0-x-x--x-3p0-----3p0---3p0-0-0-3-x-x-x-x-
e-----------------------------------------------------------------
b-----------------------------------------------------------------
g-----------------------------------------------------------------
d-----------------------------------------------------------------
a-3p0-0h4-3p0---3p0-0-0--0-x-x--x-3p0-0h4-3p0---3p0-0-0-3-x-x---x-
d-3p0-----3p0---3p0-0-0--0-x-x--x-3p0-----3p0---3p0-0-0-3-x-x---x-
e------------------------
b------------------------
g------------------------
d------------------------
a-3p0-0h4-3p0------------
d-3p0-----3p0------------
that’s all
trevor jones
[email protected]




Ваше мнение



Капча