Band - BLAZE
Song - Ten Seconds
Album - Blood And Belief
Tabbed - Chris Kahui
E-mail - [email protected]

Tunned In Drop D

Play the intro 12 times
Intro Guitar 01
]------------------------------------------------------------------[
]------------------------------------------------------------------[
]-14-10------------------------------------------------------------[
]-------12---14-10------14-10------14-10------14-10----10----------[
]------------------12---------12---------12---------12-------------[
]------------------------------------------------------------------[

Intro Guitar 02
]------------------------------------------------------------------[
]-10-6-------------------------------------------------------------[
]------7----9--5--------9--5--------9--5--------9--5-----5---------[
]-----------------7-----------7-----------7-----------7------------[
]------------------------------------------------------------------[
]------------------------------------------------------------------[

Then play this 4 times
Guitar 01
]------------------------------------------------------------------[
]------------------------------------------------------------------[
]------------------------------------------------------------------[
]------------------------------------------------------------------[
]--0-------------------3/5/3/5-3----------6-5--3-------------------[
]--0--0-0-0-0-0-0-0-0--3/5/3/5-3--3-3-3-3-6-5--3-------------------[

Guitar 02
]------------------------------------------------------------------[
]------------------------------------------------------------------[
]------------------------------------------------------------------[
]------------------------------------------------------------------[
]--0-------------------3/5/3/5-3----------6-5*-3-------------------[
]--0--0-0-0-0-0-0-0-0--3/5/3/5-3--3-3-3-3-6----3-------------------[

Then the lyrics start
Both Guitars
You love the rush.............The rush of the win.
]------------------------------------------------------------------[
]------------------------------------------------------------------[
]------------------------------------------------------------------[
]------------------------------------------------------------------[
]--0----------------------------3----------------------------------[
]--0--0-0-0-0-0-0-0-0--3-5-3-5--3--3-3-3-3-3-3-6-6-6-6-5-5-3-3-----[

Risk Of Defeat.................Risk everything.
]------------------------------------------------------------------[
]------------------------------------------------------------------[
]------------------------------------------------------------------[
]------------------------------------------------------------------[
]--0----------------------------3----------------------------------[
]--0--0-0-0-0-0-0-0-0--3-5-3-5--3--3-3-3-3-3-3-6-6-6-6-5-5-3-3-----[

Feel you can cheat.............Death one more time.
]------------------------------------------------------------------[
]------------------------------------------------------------------[
]------------------------------------------------------------------[
]------------------------------------------------------------------[
]--0----------------------------3----------------------------------[
]--0--0-0-0-0-0-0-0-0--3-5-3-5--3--3-3-3-3-3-3-6-6-6-6-5-5-3-3-----[

Theres nothing else............Till you croos the line.
]------------------------------------------------------------------[
]------------------------------------------------------------------[
]------------------------------------------------------------------[
]------------------------------------------------------------------[
]--0----------------------------3----------------------------------[
]--0--0-0-0-0-0-0-0-0--3-5-3-5--3--3-3-3-3-3-3-6-6-6-6-5-5-3-3-----[

Pre Chorus
Guitar 01
Faster than the rest...........You live to be.
]------------------------------------------------------------------[
]------------------------------------------------------------------[
]------------------------------------------------------------------[
]------------------------------------------------------------------[
]--8-------------------------------7-8-7--8------------------------[
]--8--8-8-8-8-8-8-8-8-8-8-8-8-8-8--7-8-7--8------------------------[

Guitar 02
]------------------------------------------------------------------[
]------------------------------------------------------------------[
]------------------------------------------------------------------[
]--3-------------------------------2-3-2--3------------------------[
]--1--1-1-1-1-1-1-1-1-1-1-1-1-1-1--0-1-0--1------------------------[
]------------------------------------------------------------------[

Your at the line........Cause youve got to see
]------------------------------------------------------------------[
]------------------------------------------------------------------[
]------------------------------------------------------------------[
]------------------------------------------------------------------[
]----------------------------------7-8-7--8------------------------[
]---8-8-8-8-8-8-8-8-8-8-8-8-8-8-8--7-8-7--8------------------------[

Guitar 02
]------------------------------------------------------------------[
]------------------------------------------------------------------[
]------------------------------------------------------------------[
]----------------------------------2-3-2--3------------------------[
]---1-1-1-1-1-1-1-1-1-1-1-1-1-1-1--0-1-0--1------------------------[
]------------------------------------------------------------------[

Chorus
Both Guitars
Ten ........... Ten Seconds
]------------------------------------------------------------------[
]------------------------------------------------------------------[
]------------------------------------------------------------------[
]------------------------------------------------------------------[
]--0-------------0--8----------------------------------------------[
]--0-------------0--8----------------------------------------------[

Ten seconds at a time ,you feel alive for
]------------------------------------------------------------------[
]------------------------------------------------------------------[
]------------------------------------------------------------------[
]------------------------------------------------------------------[
]--5-----------------5---3--------2--------------------------------[
]--5-----------------5---3--------2--------------------------------[

Guitar 01
Ten ........... Ten Seconds
]------------------------------------------------------------------[
]------------------------------------------------------------------[
]------------------------------------------------------------------[
]------------------------------------------------------------------[
]--0-------------0--8----------------------------------------------[
]--0-------------0--8----------------------------------------------[

Guitar 02 play 2 times
]------------------------------------------------------------------[
]-10-6-------------------------------------------------------------[
]------7----9--5--------9--5--------9--5--------9--5-----5---------[
]-----------------7-----------7-----------7-----------7------------[
]------------------------------------------------------------------[
]------------------------------------------------------------------[

Guitar 01
Living your life in a quarter mile
]------------------------------------------------------------------[
]------------------------------------------------------------------[
]------------------------------------------------------------------[
]------------------------------------------------------------------[
]--5----------------5----3--------2--------------------------------[
]--5----------------5----3--------2--------------------------------[

Guitar 02 play 2 times
]------------------------------------------------------------------[
]-10-6-------------------------------------------------------------[
]------7----9--5--------9--5--------9--5--------9--5-----5---------[
]-----------------7-----------7-----------7-----------7------------[
]------------------------------------------------------------------[
]------------------------------------------------------------------[

Then play this 2 times
Guitar 01
]------------------------------------------------------------------[
]------------------------------------------------------------------[
]------------------------------------------------------------------[
]------------------------------------------------------------------[
]--0-------------------3/5/3/5-3----------6-5--3-------------------[
]--0--0-0-0-0-0-0-0-0--3/5/3/5-3--3-3-3-3-6-5--3-------------------[

Guitar 02
]------------------------------------------------------------------[
]------------------------------------------------------------------[
]------------------------------------------------------------------[
]------------------------------------------------------------------[
]--0-------------------3/5/3/5-3----------6-5*-3-------------------[
]--0--0-0-0-0-0-0-0-0--3/5/3/5-3--3-3-3-3-6----3-------------------[

Then the lyrics start
Both Guitars
Time to focus..................You picture the win.
]------------------------------------------------------------------[
]------------------------------------------------------------------[
]------------------------------------------------------------------[
]------------------------------------------------------------------[
]--0----------------------------3----------------------------------[
]--0--0-0-0-0-0-0-0-0--3-5-3-5--3--3-3-3-3-3-3-6-6-6-6-5-5-3-3-----[

The engine roars...............Feel the rush within.
]------------------------------------------------------------------[
]------------------------------------------------------------------[
]------------------------------------------------------------------[
]------------------------------------------------------------------[
]--0----------------------------3----------------------------------[
]--0--0-0-0-0-0-0-0-0--3-5-3-5--3--3-3-3-3-3-3-6-6-6-6-5-5-3-3-----[

You must pursue................This victory.
]------------------------------------------------------------------[
]------------------------------------------------------------------[
]------------------------------------------------------------------[
]------------------------------------------------------------------[
]--0----------------------------3----------------------------------[
]--0--0-0-0-0-0-0-0-0--3-5-3-5--3--3-3-3-3-3-3-6-6-6-6-5-5-3-3-----[

There is nothing else..........You have to be.
]------------------------------------------------------------------[
]------------------------------------------------------------------[
]------------------------------------------------------------------[
]------------------------------------------------------------------[
]--0----------------------------3----------------------------------[
]--0--0-0-0-0-0-0-0-0--3-5-3-5--3--3-3-3-3-3-3-6-6-6-6-5-5-3-3-----[

Pre Chorus
Guitar 01
Faster than the rest...........You live to be.
]------------------------------------------------------------------[
]------------------------------------------------------------------[
]------------------------------------------------------------------[
]------------------------------------------------------------------[
]--8-------------------------------7-8-7--8------------------------[
]--8--8-8-8-8-8-8-8-8-8-8-8-8-8-8--7-8-7--8------------------------[

Guitar 02
]------------------------------------------------------------------[
]------------------------------------------------------------------[
]------------------------------------------------------------------[
]--3-------------------------------2-3-2--3------------------------[
]--1--1-1-1-1-1-1-1-1-1-1-1-1-1-1--0-1-0--1------------------------[
]------------------------------------------------------------------[

Your at the line........Cause youve got to see
]------------------------------------------------------------------[
]------------------------------------------------------------------[
]------------------------------------------------------------------[
]------------------------------------------------------------------[
]----------------------------------7-8-7--8------------------------[
]---8-8-8-8-8-8-8-8-8-8-8-8-8-8-8--7-8-7--8------------------------[

Guitar 02
]------------------------------------------------------------------[
]------------------------------------------------------------------[
]------------------------------------------------------------------[
]----------------------------------2-3-2--3------------------------[
]---1-1-1-1-1-1-1-1-1-1-1-1-1-1-1--0-1-0--1------------------------[
]------------------------------------------------------------------[

Chorus
Both Guitars
Ten ........... Ten Seconds
]------------------------------------------------------------------[
]------------------------------------------------------------------[
]------------------------------------------------------------------[
]------------------------------------------------------------------[
]--0-------------0--8----------------------------------------------[
]--0-------------0--8----------------------------------------------[

Ten seconds at a time ,you feel alive for
]------------------------------------------------------------------[
]------------------------------------------------------------------[
]------------------------------------------------------------------[
]------------------------------------------------------------------[
]--5-----------------5---3--------2--------------------------------[
]--5-----------------5---3--------2--------------------------------[

Guitar 01
Ten ........... Ten Seconds
]------------------------------------------------------------------[
]------------------------------------------------------------------[
]------------------------------------------------------------------[
]------------------------------------------------------------------[
]--0-------------0--8----------------------------------------------[
]--0-------------0--8----------------------------------------------[

Guitar 02 play 2 times
]------------------------------------------------------------------[
]-10-6-------------------------------------------------------------[
]------7----9--5--------9--5--------9--5--------9--5-----5---------[
]-----------------7-----------7-----------7-----------7------------[
]------------------------------------------------------------------[
]------------------------------------------------------------------[

Guitar 01
Living your life in a quarter mile
]------------------------------------------------------------------[
]------------------------------------------------------------------[
]------------------------------------------------------------------[
]------------------------------------------------------------------[
]--5----------------5----3--------2--------------------------------[
]--5----------------5----3--------2--------------------------------[

Guitar 02 Play 2 Times
]------------------------------------------------------------------[
]-10-6-------------------------------------------------------------[
]------7----9--5--------9--5--------9--5--------9--5-----5---------[
]-----------------7-----------7-----------7-----------7------------[
]------------------------------------------------------------------[
]------------------------------------------------------------------[

Play this 8 times
Guitar 01
]------------------------------------------------------------------[
]------------------------------------------------------------------[
]-14-10------------------------------------------------------------[
]-------12---14-10------14-10------14-10------14-10----10----------[
]------------------12---------12---------12---------12-------------[
]------------------------------------------------------------------[

Guitar 02
]------------------------------------------------------------------[
]-10-6-------------------------------------------------------------[
]------7----9--5--------9--5--------9--5--------9--5-----5---------[
]-----------------7-----------7-----------7-----------7------------[
]------------------------------------------------------------------[
]------------------------------------------------------------------[

Now the solos

Rythm 01
]------------------------------------------------------------------[
]------------------------------------------------------------------[
]------------------------------------------------------------------[
]------------------------------------------------------------------[
]---0-----------------------------8-------------7-8-7--------------[
]---0-0-0-0-0-0-0-0-0-0-0-0-0-0-0-8-8-8-8-8-8-8-7-8-7--------------[

]------------------------------------------------------------------[
]------------------------------------------------------------------[
]------------------------------------------------------------------[
]------------------------------------------------------------------[
]---5---------------------------3-------------2--------------------[
]---5-5-5-5-5-5-5-5-5-5-5-5-5-5-3-3-3-3-3-3-3-2-2-2-2-2-2-2--------[

]------------------------------------------------------------------[
]------------------------------------------------------------------[
]------------------------------------------------------------------[
]------------------------------------------------------------------[
]---0-----------------------------8-------------7-8-7--------------[
]---0-0-0-0-0-0-0-0-0-0-0-0-0-0-0-8-8-8-8-8-8-8-7-8-7--------------[

]------------------------------------------------------------------[
]------------------------------------------------------------------[
]------------------------------------------------------------------[
]------------------------------------------------------------------[
]---5---------------------------3-------------2--------------------[
]---5-5-5-5-5-5-5-5-5-5-5-5-5-5-3-3-3-3-3-3-3-2-2-2-2-2-2-2--------[

Rythm 02
]------------------------------------------------------------------[
]------------------------------------------------------------------[
]------------------------------------------------------------------[
]------------------------------------------------------------------[
]---0-----------------------------8--------------------------------[
]---0-----------------------------8--------------------------------[

]------------------------------------------------------------------[
]------------------------------------------------------------------[
]------------------------------------------------------------------[
]------------------------------------------------------------------[
]---5-----------------------------3-------------2------------------[
]---5-----------------------------3-------------2------------------[

]------------------------------------------------------------------[
]------------------------------------------------------------------[
]------------------------------------------------------------------[
]------------------------------------------------------------------[
]---0-----------------------------8--------------------------------[
]---0-----------------------------8--------------------------------[

]------------------------------------------------------------------[
]------------------------------------------------------------------[
]------------------------------------------------------------------[
]------------------------------------------------------------------[
]---5-----------------------------3-------------2------------------[
]---5-----------------------------3-------------2------------------[

Pre Chorus
Guitar 01
Faster than the rest...........You live to be.
]------------------------------------------------------------------[
]------------------------------------------------------------------[
]------------------------------------------------------------------[
]------------------------------------------------------------------[
]--8-------------------------------7-8-7--8------------------------[
]--8--8-8-8-8-8-8-8-8-8-8-8-8-8-8--7-8-7--8------------------------[

Guitar 02
]------------------------------------------------------------------[
]------------------------------------------------------------------[
]------------------------------------------------------------------[
]--3-------------------------------2-3-2--3------------------------[
]--1--1-1-1-1-1-1-1-1-1-1-1-1-1-1--0-1-0--1------------------------[
]------------------------------------------------------------------[

Your at the line........Cause youve got to see
]------------------------------------------------------------------[
]------------------------------------------------------------------[
]------------------------------------------------------------------[
]------------------------------------------------------------------[
]----------------------------------7-8-7--8------------------------[
]---8-8-8-8-8-8-8-8-8-8-8-8-8-8-8--7-8-7--8------------------------[

Guitar 02
]------------------------------------------------------------------[
]------------------------------------------------------------------[
]------------------------------------------------------------------[
]----------------------------------2-3-2--3------------------------[
]---1-1-1-1-1-1-1-1-1-1-1-1-1-1-1--0-1-0--1------------------------[
]------------------------------------------------------------------[

Chorus
Both Guitars
Ten ........... Ten Seconds
]------------------------------------------------------------------[
]------------------------------------------------------------------[
]------------------------------------------------------------------[
]------------------------------------------------------------------[
]--0-------------0--8----------------------------------------------[
]--0-------------0--8----------------------------------------------[

Ten seconds at a time ,you feel alive for
]------------------------------------------------------------------[
]------------------------------------------------------------------[
]------------------------------------------------------------------[
]------------------------------------------------------------------[
]--5-----------------5---3--------2--------------------------------[
]--5-----------------5---3--------2--------------------------------[

Ten ........... Ten Seconds
]------------------------------------------------------------------[
]------------------------------------------------------------------[
]------------------------------------------------------------------[
]------------------------------------------------------------------[
]--0-------------0--8----------------------------------------------[
]--0-------------0--8----------------------------------------------[

Living your life in a quarter mile
]------------------------------------------------------------------[
]------------------------------------------------------------------[
]------------------------------------------------------------------[
]------------------------------------------------------------------[
]--5-----------------5---3--------2--------------------------------[
]--5-----------------5---3--------2--------------------------------[

Guitar 01
Ten ........... Ten Seconds
]------------------------------------------------------------------[
]------------------------------------------------------------------[
]------------------------------------------------------------------[
]------------------------------------------------------------------[
]--0-------------0--8----------------------------------------------[
]--0-------------0--8----------------------------------------------[

Guitar 02 Play 2 Times
]------------------------------------------------------------------[
]-10-6-------------------------------------------------------------[
]------7----9--5--------9--5--------9--5--------9--5-----5---------[
]-----------------7-----------7-----------7-----------7------------[
]------------------------------------------------------------------[
]------------------------------------------------------------------[

Ten seconds at a time ,you feel alive for
]------------------------------------------------------------------[
]------------------------------------------------------------------[
]------------------------------------------------------------------[
]------------------------------------------------------------------[
]--5-----------------5---3--------2--------------------------------[
]--5-----------------5---3--------2--------------------------------[

Guitar 02 Play 2 Times
]------------------------------------------------------------------[
]-10-6-------------------------------------------------------------[
]------7----9--5--------9--5--------9--5--------9--5-----5---------[
]-----------------7-----------7-----------7-----------7------------[
]------------------------------------------------------------------[
]------------------------------------------------------------------[

Ten ........... Ten Seconds
]------------------------------------------------------------------[
]------------------------------------------------------------------[
]------------------------------------------------------------------[
]------------------------------------------------------------------[
]--0-------------0--8----------------------------------------------[
]--0-------------0--8----------------------------------------------[

Guitar 02 Play 2 Times
]------------------------------------------------------------------[
]-10-6-------------------------------------------------------------[
]------7----9--5--------9--5--------9--5--------9--5-----5---------[
]-----------------7-----------7-----------7-----------7------------[
]------------------------------------------------------------------[
]------------------------------------------------------------------[

Living your life in a quarter mile
]------------------------------------------------------------------[
]------------------------------------------------------------------[
]------------------------------------------------------------------[
]------------------------------------------------------------------[
]--5-----------------5---3--------2--------------------------------[
]--5-----------------5---3--------2--------------------------------[

Guitar 02 Play 2 Times
]------------------------------------------------------------------[
]-10-6-------------------------------------------------------------[
]------7----9--5--------9--5--------9--5--------9--5-----5---------[
]-----------------7-----------7-----------7-----------7------------[
]------------------------------------------------------------------[
]------------------------------------------------------------------[

Play 4 times
Outro Guitar 01
]------------------------------------------------------------------[
]------------------------------------------------------------------[
]-14-10------------------------------------------------------------[
]-------12---14-10------14-10------14-10------14-10----10----------[
]------------------12---------12---------12---------12-------------[
]------------------------------------------------------------------[

Outro Guitar 02
]------------------------------------------------------------------[
]-10-6-------------------------------------------------------------[
]------7----9--5--------9--5--------9--5--------9--5-----5---------[
]-----------------7-----------7-----------7-----------7------------[
]------------------------------------------------------------------[

The End.
]------------------------------------------------------------------[




Ваше мнение



Капча