Band - BLAZE
Song - Tearing Yourself To Pieces
Album - Blood And Belief
Tabbed - Chris Kahui & Brent Robinson
E-mail - [email protected]

Tunned In Drop D

0.50 seconds

]--------------------------------------------------------[
]--------------------------------------------------------[
]--------------------------------------------------------[
]-----------------------------------------------------7--[
]--0-----5-6-7----7--7-8-7----0-----5-6-7----7--7-8-8----[
]--0---0----------------------0---0----------------------[

]--------------------------------------------------------[
]--------------------------------------------------------[
]--------------------------------------------------------[
]------------------------------------------5-------------[
]--0-----5-6-7----7--7-8-7----0-----5-6-7--3-----0-0-----[
]--0---0----------------------0---0--------------0-0-----[

Lyrics come in now.Verse 01
Tearing yourself to pieces......
]--------------------------------------------------------[
]--------------------------------------------------------[
]--------------------------------------------------------[
]-----------------------------------------------------7--[
]--0-----5-6-7----7--7-8-7----0-----5-6-7----7--7-8-8----[
]--0---0----------------------0---0----------------------[

]--------------------------------------------------------[
]--------------------------------------------------------[
]--------------------------------------------------------[
]------------------------------------------5-------------[
]--0-----5-6-7----7--7-8-7----0-----5-6-7--3-----0-0-0---[
]--0---0----------------------0---0--------------0-0-0---[

]--------------------------------------------------------[
]--------------------------------------------------------[
]--------------------------------------------------------[
]-----------------------------------------------------7--[
]--0-----5-6-7----7--7-8-7----0-----5-6-7----7--7-8-8----[
]--0---0----------------------0---0----------------------[

]--------------------------------------------------------[
]--------------------------------------------------------[
]--------------------------------------------------------[
]------------------------------------------5-------------[
]--0-----5-6-7----7--7-8-7----0-----5-6-7--3-----0-0-0---[
]--0---0----------------------0---0--------------0-0-0---[

1.33 seconds
You got..........................................
]--------------------------------------------------------[
]---------------------------------------------5----------[
]--------5---4/2----4--------------5---4/2----5----------[
]-------------------7------------------------------------[
]--0--0----0-----0-----------0--0----0-----0-------------[
]--------------------------------------------------------[

]--------------------------------------------------------[
]---------------------------------------------5----------[
]--------5---4/2----4--------------5---4/2----5----------[
]-------------------7------------------------------------[
]--0--0----0-----0-----------0--0----0-----0-------------[
]--------------------------------------------------------[

1.46 seconds Second Verse
You have lost all.........................
]--------------------------------------------------------[
]--------------------------------------------------------[
]--------------------------------------------------------[
]-----------------------------------------------------7--[
]--0-----5-6-7----7--7-8-7----0-----5-6-7----7--7-8-8----[
]--0---0----------------------0---0----------------------[

]--------------------------------------------------------[
]--------------------------------------------------------[
]--------------------------------------------------------[
]------------------------------------------5-------------[
]--0-----5-6-7----7--7-8-7----0-----5-6-7--3-----0-0-0---[
]--0---0----------------------0---0--------------0-0-0---[

]--------------------------------------------------------[
]--------------------------------------------------------[
]--------------------------------------------------------[
]-----------------------------------------------------7--[
]--0-----5-6-7----7--7-8-7----0-----5-6-7----7--7-8-8----[
]--0---0----------------------0---0----------------------[

]--------------------------------------------------------[
]--------------------------------------------------------[
]--------------------------------------------------------[
]------------------------------------------5-------------[
]--0-----5-6-7----7--7-8-7----0-----5-6-7--3-----0-0-0---[
]--0---0----------------------0---0--------------0-0-0---[

2.15 seconds
You dont need..................................
]--------------------------------------------------------[
]---------------------------------------------5----------[
]--------5---4/2----4--------------5---4/2----5----------[
]-------------------7------------------------------------[
]--0--0----0-----0-----------0--0----0-----0-------------[
]--------------------------------------------------------[

]--------------------------------------------------------[
]---------------------------------------------5----------[
]--------5---4/2----4--------------5---4/2----5----------[
]-------------------7------------------------------------[
]--0--0----0-----0-----------0--0----0-----0-------------[
]--------------------------------------------------------[

2.31 seconds
Tell yourself a lie. You will live a lie.
]--------------------------------------------------------[
]--------------------------------------------------------[
]--------------------------------------------------------[
]--------------------------------------------------------[
]--12-12-10-0-8-------------------12-0-7-8-10------------[
]--12-12-10-0-8-------------------12-0-7-8-10------------[

]--------------------------------------------------------[
]--------------------------------------------------------[
]--------------------------------------------------------[
]--------------------------------------------------------[
]--12-12-10-0-8-------------------12-0-7-8-10------------[
]--12-12-10-0-8-------------------12-0-7-8-10------------[

]--------------------------------------------------------[
]--------------------------------------------------------[
]--------------------------------------------------------[
]--------------------------------------------------------[
]--12-12-10-0-8-------------------12-0-7-8-10------------[
]--12-12-10-0-8-------------------12-0-7-8-10------------[

]--------------------------------------------------------[
]--------------------------------------------------------[
]--------------------------------------------------------[
]--------------------------------------------------------[
]--12-12-10-0-8-------------------12-0-7-8-10------------[
]--12-12-10-0-8-------------------12-0-7-8-10------------[

2.59 seconds
You lie..................................................
]--------------------------------------------------------[
]--------------------------------------------------------[
]--------------------------------------------------------[
]----0---------------------------------------------------[
]--------------------------------------------------------[
]--------------------------------------------------------[

3.12 seconds - interlude

]--------------------------------------------------------[
]-----------------------13-------------------------------[
]--7-9-10-------7-9-10--12b14----------------------------[
]--------------------------------------------------------[
]--5-7-8--------5-7-8------------------------------------[
]--------------------------------------------------------[

]--------------------------------------------------------[
]-----------------------13-------------------------------[
]--7-9-10-------7-9-10--12b14----------------------------[
]--------------------------------------------------------[
]--5-7-8--------5-7-8------------------------------------[
]--------------------------------------------------------[

3.26 seconds - solo
Solo
]--------------------------------------------------------[
]---------------------------------------------5----------[
]--------5---4/2----4--------------5---4/2----5----------[
]-------------------7------------------------------------[
]--0--0----0-----0-----------0--0----0-----0-------------[
]--------------------------------------------------------[

]--------------------------------------------------------[
]---------------------------------------------5----------[
]--------5---4/2----4--------------5---4/2----5----------[
]-------------------7------------------------------------[
]--0--0----0-----0-----------0--0----0-----0-------------[
]--------------------------------------------------------[

]--------------------------------------------------------[
]--------------------------------------------------------[
]--------------------------------------------------------[
]-----------------------------------------------------7--[
]--0-----5-6-7----7--7-8-7----0-----5-6-7----7--7-8-8----[
]--0---0----------------------0---0----------------------[

]--------------------------------------------------------[
]--------------------------------------------------------[
]--------------------------------------------------------[
]------------------------------------------5-------------[
]--0-----5-6-7----7--7-8-7----0-----5-6-7--3-----0-0-----[
]--0---0----------------------0---0--------------0-0-----[

Lyrics come in agian.Verse 03
Tearing yourself to pieces......
]--------------------------------------------------------[
]--------------------------------------------------------[
]--------------------------------------------------------[
]-----------------------------------------------------7--[
]--0-----5-6-7----7--7-8-7----0-----5-6-7----7--7-8-8----[
]--0---0----------------------0---0----------------------[

]--------------------------------------------------------[
]--------------------------------------------------------[
]--------------------------------------------------------[
]------------------------------------------5-------------[
]--0-----5-6-7----7--7-8-7----0-----5-6-7--3-----0-0-0---[
]--0---0----------------------0---0--------------0-0-0---[

]--------------------------------------------------------[
]--------------------------------------------------------[
]--------------------------------------------------------[
]-----------------------------------------------------7--[
]--0-----5-6-7----7--7-8-7----0-----5-6-7----7--7-8-8----[
]--0---0----------------------0---0----------------------[

]--------------------------------------------------------[
]--------------------------------------------------------[
]--------------------------------------------------------[
]------------------------------------------5-------------[
]--0-----5-6-7----7--7-8-7----0-----5-6-7--3-----0-0-0---[
]--0---0----------------------0---0--------------0-0-0---[

4.24 seconds
You got..........................................
]--------------------------------------------------------[
]---------------------------------------------5----------[
]--------5---4/2----4--------------5---4/2----5----------[
]-------------------7------------------------------------[
]--0--0----0-----0-----------0--0----0-----0-------------[
]--------------------------------------------------------[

]--------------------------------------------------------[
]---------------------------------------------5----------[
]--------5---4/2----4--------------5---4/2----5----------[
]-------------------7------------------------------------[
]--0--0----0-----0-----------0--0----0-----0-------------[
]--------------------------------------------------------[

4.39 Seconds
Tell yourself a lie. You will live a lie.
]--------------------------------------------------------[
]--------------------------------------------------------[
]--------------------------------------------------------[
]--------------------------------------------------------[
]--12-12-10-0-8-------------------12-0-7-8-10------------[
]--12-12-10-0-8-------------------12-0-7-8-10------------[

]--------------------------------------------------------[
]--------------------------------------------------------[
]--------------------------------------------------------[
]--------------------------------------------------------[
]--12-12-10-0-8-------------------12-0-7-8-10------------[
]--12-12-10-0-8-------------------12-0-7-8-10------------[

]--------------------------------------------------------[
]--------------------------------------------------------[
]--------------------------------------------------------[
]--------------------------------------------------------[
]--12-12-10-0-8-------------------12-0-7-8-10------------[
]--12-12-10-0-8-------------------12-0-7-8-10------------[

]--------------------------------------------------------[
]--------------------------------------------------------[
]--------------------------------------------------------[
]--------------------------------------------------------[
]--12-12-10-0-8-------------------12-0-7-8-10------------[
]--12-12-10-0-8-------------------12-0-7-8-10------------[

Interlude
]--------------------------------------------------------[
]-----------------------13-------------------------------[
]--7-9-10-------7-9-10--12b14----------------------------[
]--------------------------------------------------------[
]--5-7-8--------5-7-8------------------------------------[
]--------------------------------------------------------[

]--------------------------------------------------------[
]-----------------------13-------------------------------[
]--7-9-10-------7-9-10--12b14----------------------------[
]--------------------------------------------------------[
]--5-7-8--------5-7-8------------------------------------[
]--------------------------------------------------------[

]--------------------------------------------------------[
]-----------------------13-------------------------------[
]--7-9-10-------7-9-10--12b14----------------------------[
]--------------------------------------------------------[
]--5-7-8--------5-7-8------------------------------------[
]--------------------------------------------------------[

]--------------------------------------------------------[
]-----------------------13-------------------------------[
]--7-9-10-------7-9-10--12b14----------------------------[
]--------------------------------------------------------[
]--5-7-8--------5-7-8------------------------------------[
]--------------------------------------------------------[

The End




Ваше мнение



Капча