All in drop d. I got more but it needs correcting. Should have it done by the end of the week.

Remember that there are other chords in the background.

|-------------------------------|
|-------------------------------|
|-------------------------------|
|-0-----3-5-----0---0---0-3-5-3-|
|-0-----3-5-----0---0---0-3-5-3-|
|-0-0-0-3-5-0-0-0-0-0-0-0-3-5-3-|

|-----------------------------------|
|-----------------------------------|
|-----------------------------------|
|-0-----3-5-----7---7-----5---5-----|
|-0-----3-5-----7---7-----5---5-----|
|-0-0-0-3-5-0-0-7---7-----5---5-----|




Ваше мнение



Капча