Band - Blaze
Song - Alive
Album - Blood And Belief
Tabbed - Chris Kahui
E-mail - [email protected]
Tunned In Drop D
Intro
Guitar 01
]--------------------------------------------------------------[
]--------------------------------------------------------------[
]--------------------------------------------------------------[
]--------------------------------------------------------------[
]--------------------------------------------------------------[
]--0--0-7-0--0-0-0--8-0-8-0--------0--0-7-0--0-0-0--8-10-8-10--[
]--------------------------------------------------------------[
]--------------------------------------------------------------[
]--------------------------------------------------------------[
]--------------------------------------------------------------[
]---------------------------------------------------7/---------[
]--0--0-7-0--0-0-0--8-0-8-0--------0--0-7-0--0-0-0--7/---------[
Both Guitars play this 4 times
]--------------------------------------------------------------[
]--------------------------------------------------------------[
]--------------------------------------------------------------[
]--------------------------------------------------------------[
]--0--0-7-0--0-0-0--8-0-8-0--------0--0-7-0--0-0-0--8-10-8-10--[
]--0--0-7-0--0-0-0--8-0-8-0--------0--0-7-0--0-0-0--8-10-8-10--[
Then this ,Both guitars
]--------------------------------------------------------------[
]--------------------------------------------------------------[
]--------------------------------------------------------------[
]-------------------------------------------------------3------[
]--3-0-0-0--2-3-5-0-0-0--2-3-7-0-0-0--2-3-5-0-0-0----0--1------[
]--3-0-0-0--2-3-5-0-0-0--2-3-7-0-0-0--2-3-5-0-0-0----0---------[
]--------------------------------------------------------------[
]--------------------------------------------------------------[
]--------------------------------------------------------------[
]--------------------------------------------------------------[
]--3-0-0-0--2-3-5-0-0-0--2-3-7-0-0-0--2-3-5-0-0-0--------------[
]--3-0-0-0--2-3-5-0-0-0--2-3-7-0-0-0--2-3-5-0-0-0--------------[
Verse 01 ,Both Guitars play this 2 times
]--------------------------------------------------------------[
]--------------------------------------------------------------[
]--------------------------------------------------------------[
]-------------------------------------------------------3------[
]--3-0-0-0--2-3-5-0-0-0--2-3-7-0-0-0--2-3-5-0-0-0----0--1------[
]--3-0-0-0--2-3-5-0-0-0--2-3-7-0-0-0--2-3-5-0-0-0----0---------[
Pre chorus ,Both guitars
]--------------------------------------------------------------[
]--------------------------------------------------------------[
]--------------------------------------------------------------[
]--------------------------------------------------------------[
]--5-5-4-4-5-5-4-4--5-5-5-5--3-3-3-0--1------------------------[
]-------------------5-5-5-5--3-3-3-0--1------------------------[
]--------------------------------------------------------------[
]--------------------------------------------------------------[
]--------------------------------------------------------------[
]--------------------------------------------------------------[
]--5-0-----5-0------5-5-4-4-5-5-4-4--5-5-5-5--3-3-3-0--1-------[
]------3-0-----3-0-------------------5-5-5-5--3-3-3-0--1-------[
]--------------------------------------------------------------[
]--------------------------------------------------------------[
]--------------------------------------------------------------[
]--------------------------------------------------------------[
]--5-0-----5-0------5-5-4-4-5-5-4-4--5-5-5-5--3-3-3-0--1-------[
]------3-0-----3-0-------------------5-5-5-5--3-3-3-0--1-------[
]--------------------------------------------------------------[
]--------------------------------------------------------------[
]--------------------------------------------------------------[
]--------------------------------------------------------------[
]--5-0-----5-0------5-5-4-4-5-5-4-4--5-5-5-5--3-3-3-0--1-------[
]------3-0-----3-0-------------------5-5-5-5--3-3-3-0--1-------[
Chorus
Both Guitars play this 2 times
]--------------------------------------------------------------[
]--------------------------------------------------------------[
]--------------------------------------------------------------[
]--------------------------------------------------------------[
]--0--0-7-0--0-0-0--8-0-8-0--------0--0-7-0--0-0-0--8-10-8-10--[
]--0--0-7-0--0-0-0--8-0-8-0--------0--0-7-0--0-0-0--8-10-8-10--[
Verse 02 ,Both Guitars play this 2 times
]--------------------------------------------------------------[
]--------------------------------------------------------------[
]--------------------------------------------------------------[
]-------------------------------------------------------3------[
]--3-0-0-0--2-3-5-0-0-0--2-3-7-0-0-0--2-3-5-0-0-0----0--1------[
]--3-0-0-0--2-3-5-0-0-0--2-3-7-0-0-0--2-3-5-0-0-0----0---------[
Pre chorus ,Both guitars
]--------------------------------------------------------------[
]--------------------------------------------------------------[
]--------------------------------------------------------------[
]--------------------------------------------------------------[
]--5-5-4-4-5-5-4-4--5-5-5-5--3-3-3-0--1------------------------[
]-------------------5-5-5-5--3-3-3-0--1------------------------[
]--------------------------------------------------------------[
]--------------------------------------------------------------[
]--------------------------------------------------------------[
]--------------------------------------------------------------[
]--5-0-----5-0------5-5-4-4-5-5-4-4--5-5-5-5--3-3-3-0--1-------[
]------3-0-----3-0-------------------5-5-5-5--3-3-3-0--1-------[
]--------------------------------------------------------------[
]--------------------------------------------------------------[
]--------------------------------------------------------------[
]--------------------------------------------------------------[
]--5-0-----5-0------5-5-4-4-5-5-4-4--5-5-5-5--3-3-3-0--1-------[
]------3-0-----3-0-------------------5-5-5-5--3-3-3-0--1-------[
]--------------------------------------------------------------[
]--------------------------------------------------------------[
]--------------------------------------------------------------[
]--------------------------------------------------------------[
]--5-0-----5-0------5-5-4-4-5-5-4-4--5-5-5-5--3-3-3-0--1-------[
]------3-0-----3-0-------------------5-5-5-5--3-3-3-0--1-------[
Chorus
Both Guitars play this 2 times
]--------------------------------------------------------------[
]--------------------------------------------------------------[
]--------------------------------------------------------------[
]--------------------------------------------------------------[
]--0--0-7-0--0-0-0--8-0-8-0--------0--0-7-0--0-0-0--8-10-8-10--[
]--0--0-7-0--0-0-0--8-0-8-0--------0--0-7-0--0-0-0--8-10-8-10--[
Then this little bit
]--------------------------------------------------------------[
]--------------------------------------------------------------[
]--------------------------------------------------------------[
]--------------------------------------------------------------[
]--0-0--0-8----0-0--0-10---------------------------------------[
]--0-0--0-8----0-0--0-10---------------------------------------[
Guitar 01
]--------------------------------------------------------------[
]--------------------------------------------------------------[
]--------------------------------------------------------------[
]--------------------------------------------------------------[
]--------------------------------------------------------------[
]--0---Just ring it out and turn down ready for solo-----------[
Guitar 02
]-------------------------------------------------------------------------------[
]-------------------------------------------------------------------------------[
]----------------------------------------------0-------0-----------0------------[
]------8---7---8-----------1-------1---------4---4---4---4-------3---3----------[
]----5---5---5---0-------1---1---1---1-----3-------3-----------1---------1---0--[
]--5-------------------1-------1---------------------------------------1---0----[
If you knew anything about real life then you would realise.....................
]-------------------------------------------------------------------------------[
]-------------------------------------------------------------------------------[
]----------------------------------------------0-------0-----------0------------[
]------8---7---8-----------1-------1---------4---4---4---4-------3---3----------[
]----5---5---5---0-------1---1---1---1-----3-------3-----------1---------1---0--[
]--5-------------------1-------1---------------------------------------1---0----[
You dont know anything about real life to me thats no suprise...................
Solo Part 01
Guitar 01
]---------------------------------15----------------------------[
]-----------------13b15r13*----13----13-11-13----13b15---13-11--[
]--10/12-------14-----------------------------------------------[
]-----------12--------------------------------------------------[
]---------------------------------------------------------------[
]---------------------------------------------------------------[
]---------------------------------------------------------------[
]--10h11p10h11-----8-7-7---5-7-8----8b9r8----10b12r10-----------[
]---------------------------------------------------------7b*---[
]---------------------------------------------------------------[
]---------------------------------------------------------------[
]---------------------------------------------------------------[
]---------------------------------------------------------------[
]--19b21r19-----19b21r19----------21b22--ring out---------------[
]---------------------------------------------------------------[
]---------------------------------------------------------------[
]---------------------------------------------------------------[
]---------------------------------------------------------------[
Solo Part 02
Guitar 01
Bend this up slow and release slow while picking it hardout
]---------------------------------------------------------------[
]---------------------------------------------------------------[
]--9b12r9-------------------------------------------------------[
]---------------------------------------------------------------[
]---------------------------------------------------------------[
]---------------------------------------------------------------[
]---------------------------------------------------------------[
]---------------------------------------------------------------[
]--9b12r9-------------------------------------------------------[
]---------------------------------------------------------------[
]---------------------------------------------------------------[
]---------------------------------------------------------------[
]---------------------------------------------------------------[
]---------------------------------------------------------------[
]---this fast bit is to hard to tab------to many bends----------[
]---------------------------------------------------------------[
]---------------------------------------------------------------[
]---------------------------------------------------------------[
]---------------------------------------------------------------[
]---------------------------------------------------------------[
]----its pretty easy to pick up---------------------------------[
]---------------------------------------------------------------[
]---------------------------------------------------------------[
]---------------------------------------------------------------[
Solo Rythm Part 01
Guitar 02
]-------------------------------------------------------------------------------[
]-------------------------------------------------------------------------------[
]----------------------------------------------0-------0-----------0------------[
]------8---7---8-----------1-------1---------4---4---4---4-------3---3----------[
]----5---5---5---0-------1---1---1---1-----3-------3-----------1---------1---0--[
]--5-------------------1-------1---------------------------------------1---0----[
]-------------------------------------------------------------------------------[
]-------------------------------------------------------------------------------[
]----------------------------------------------0-------0-----------0------------[
]------8---7---8-----------1-------1---------4---4---4---4-------3---3----------[
]----5---5---5---0-------1---1---1---1-----3-------3-----------1---------1---0--[
]--5-------------------1-------1---------------------------------------1---0----[
Solo rythm Part 02
Guitar 02
]--------------------------------------------------------------[
]--------------------------------------------------------------[
]--------------------------------------------------------------[
]--------------------------------------------------------------[
]--0--0-7-0--0-0-0--8-0-8-0--------0--0-7-0--0-0-0--8-10-8-10--[
]--0--0-7-0--0-0-0--8-0-8-0--------0--0-7-0--0-0-0--8-10-8-10--[
]--------------------------------------------------------------[
]--------------------------------------------------------------[
]--------------------------------------------------------------[
]--------------------------------------------------------------[
]--0--0-7-0--0-0-0--8-0-8-0--------0--0-7-0--0-0-0--8-10-8-10--[
]--0--0-7-0--0-0-0--8-0-8-0--------0--0-7-0--0-0-0--8-10-8-10--[
]--------------------------------------------------------------[
]--------------------------------------------------------------[
]--------------------------------------------------------------[
]--------------------------------------------------------------[
]--0--0-7-0--0-0-0--8-0-8-0--------0--0-7-0--0-0-0--8-10-8-10--[
]--0--0-7-0--0-0-0--8-0-8-0--------0--0-7-0--0-0-0--8-10-8-10--[
]--------------------------------------------------------------[
]--------------------------------------------------------------[
]--------------------------------------------------------------[
]--------------------------------------------------------------[
]--0--0-7-0--0-0-0--8-0-8-0--------0--0-7-0--0-0-0--8-10-8-10--[
]--0--0-7-0--0-0-0--8-0-8-0--------0--0-7-0--0-0-0--8-10-8-10--[
]--------------------------------------------------------------[
]--------------------------------------------------------------[
]--------------------------------------------------------------[
]--------------------------------------------------------------[
]--0--0-7-0--0-0-0--8-0-8-0--------0--0-7-0--0-0-0--8-10-8-10--[
]--0--0-7-0--0-0-0--8-0-8-0--------0--0-7-0--0-0-0--8-10-8-10--[
Verse 03 ,Both Guitars play this 2 times
]--------------------------------------------------------------[
]--------------------------------------------------------------[
]--------------------------------------------------------------[
]-------------------------------------------------------3------[
]--3-0-0-0--2-3-5-0-0-0--2-3-7-0-0-0--2-3-5-0-0-0----0--1------[
]--3-0-0-0--2-3-5-0-0-0--2-3-7-0-0-0--2-3-5-0-0-0----0---------[
Pre chorus ,Both guitars
]--------------------------------------------------------------[
]--------------------------------------------------------------[
]--------------------------------------------------------------[
]--------------------------------------------------------------[
]--5-5-4-4-5-5-4-4--5-5-5-5--3-3-3-0--1------------------------[
]-------------------5-5-5-5--3-3-3-0--1------------------------[
]--------------------------------------------------------------[
]--------------------------------------------------------------[
]--------------------------------------------------------------[
]--------------------------------------------------------------[
]--5-0-----5-0------5-5-4-4-5-5-4-4--5-5-5-5--3-3-3-0--1-------[
]------3-0-----3-0-------------------5-5-5-5--3-3-3-0--1-------[
]--------------------------------------------------------------[
]--------------------------------------------------------------[
]--------------------------------------------------------------[
]--------------------------------------------------------------[
]--5-0-----5-0------5-5-4-4-5-5-4-4--5-5-5-5--3-3-3-0--1-------[
]------3-0-----3-0-------------------5-5-5-5--3-3-3-0--1-------[
]--------------------------------------------------------------[
]--------------------------------------------------------------[
]--------------------------------------------------------------[
]--------------------------------------------------------------[
]--5-0-----5-0------5-5-4-4-5-5-4-4--5-5-5-5--3-3-3-0--1-------[
]------3-0-----3-0-------------------5-5-5-5--3-3-3-0--1-------[
Chorus
Both Guitars
]--------------------------------------------------------------[
]--------------------------------------------------------------[
]--------------------------------------------------------------[
]--------------------------------------------------------------[
]--0--0-7-0--0-0-0--8-0-8-0--------0--0-7-0--0-0-0--8-10-8-10--[
]--0--0-7-0--0-0-0--8-0-8-0--------0--0-7-0--0-0-0--8-10-8-10--[
]--------------------------------------------------------------[
]--------------------------------------------------------------[
]--------------------------------------------------------------[
]--------------------------------------------------------------[
]--0--0-7-0--0-0-0--8-0-8-0--------0--0-7-0--0-0-0--8-10-8-10--[
]--0--0-7-0--0-0-0--8-0-8-0--------0--0-7-0--0-0-0--8-10-8-10--[
]--------------------------------------------------------------[
]--------------------------------------------------------------[
]--------------------------------------------------------------[
]--------------------------------------------------------------[
]--0--0-7-0--0-0-----------------------------------------------[
]--0--0-7-0--0-0-----------------------------------------------[
]--------------------------------------------------------------[
]--------------------------------------------------------------[
]--------------------------------------------------------------[
]--------------------------------------------------------------[
]--0--0-7-0--0-0-0--8-0-8-0--------0--0-7-0--0-0-0--8-10-8-10--[
]--0--0-7-0--0-0-0--8-0-8-0--------0--0-7-0--0-0-0--8-10-8-10--[
]--------------------------------------------------------------[
]--------------------------------------------------------------[
]--------------------------------------------------------------[
]--------------------------------------------------------------[
]--0--0-7-0--0-0-0--8-0-8-0---0--------------------------------[
]--0--0-7-0--0-0-0--8-0-8-0---0--------------------------------[
[email protected]
IronMaiden BB Nick = chriskahui
PlanatBlaze BB Nick = maidennewzealand




Ваше мнение



Капча