Smash Mouth - Waste

Tabbed by Drew Smajda

Great song, one of my favorites, finally tabbed!

CHORDS:
-------
EADGBE EADGBE
B (x2444x) Am7 (x02013)
F#m (244222) D* (x54035)
Em7 (022030) G* (3x0002)
A7 (x02020) F#* (244300)
E* (054032)

Great song by a great band! This is the first non-happy song I've
heard from them. Like with all their songs, you have to tune down
one note to play along to the CD.


VERSE 1:
--------
B F#m
I'm lookin' at my watch
Em7 A7
At all the time that's been stolen
B F#m
When I was carrying you
Em7 A7
It seems I've tripped and I've fallen


VERSE 2: [play like verse 1]
--------
Don't want no one to ache
Oh to be drunk and forgetful
To get out of this unscathed
Oh to be free and inhuman


CHORUS: [see tab below]
-------
E* A7
Some, may say
E* Am7
I love, to play
D* G* F#*
When the chance is there to take


CHORUS-TAB:
-----------
E* A7 E* Am7
E|---------------------------------------2--------------3--
B|--------3--------------2---------------3------------1-1--
G|------0--------------0---------------0------------0------
D|----4--------0-----2---------------4---------------------
A|-----------2-----0---------0h2------------------0-------
E|-0-------------------------------0---------0-------------

D* G* F*
E-------------5-------------2---------------0-0-|
B-----------3-3---------------0-------------0-0-|
G--------------------------------------3-3--3-3-|




Ваше мнение



Капча