Smash Mouth - Walking On The Sun
Tabbed By: jordan
EMail: [email protected]
standard tuning
theres two basic riffs through the whole song...
Riff #1
-----------|
-----------|
-----------|
-2-4-5-4---|
-3-5-6-5---|
-----------|
Riff #2
-----------|-----------|
-----------|-----------|
-----------|-----------|
---2---4-4-|---5---4-4-|
-0-3-0-5-5-|-0-6-0-5-5-|
-----------|-----------|




Ваше мнение



Капча