Smash Mouth-Then the morning comes

Intro:
|--------------------------------|--------------------------------|--------------------------------|
|--------------------------------|--------------------------------|--------------------------------|
|--------------------------------|--------------------------------|--------------------------------|
|----------------1---3-------3---|----------------3---1-----------|----------------1---3-------3---|
|--------3---3-------------------|------------------------3---1---|3-------3---3-------------------|
|--------------------------------|--------------------------------|--------------------------------|


|--------------------------------|--------------------------------|--------------------------------|--------------------------------|
|--------------------------------|--------------------------------|--------------------------------|--------------------------------|
|--------------------------------|--------------------------------|--------------------------------|--------------------3-------2---|
|--------------------1-----------|----------------1---3-------3---|--------------------1-----------|----------------1---------------|
|------------------------3---1---|3-------3---3-------------------|------------------------3---1---|3-------3---3-------------------|
|--------------------------------|--------------------------------|--------------------------------|--------------------------------|

TabsMail...
http://tabsmail.8m.com
!Exclusive-TabsMail!




Ваше мнение



Капча