e: Sun, 22 Mar 1998 21:33:11 EST
From: FLAME PIE3
Subject: TAB:The Fonz by SmashMouth

Song: the fonz
artist: smashmouth
disc: Fush Yu Mang
Tabbed by: asher
E-mail: Flame [email protected]
This is the tabs for my favorite song on The Smashmouth CD
i didn't write out how many times to play each chord so as usual listen to the CD
Intro.
G-------5--------------------------------------------------------------------
D-5-----5------7-------3-----------------------------------------------------
A-5-----3------7-------3-----------------------------------------------------
E-3------------5-------1-----------------------------------------------------
Verse
G---------5------------------5---------------------------7----------3--------
D---7-----5------5-----3-----5----5-----------------7----7-----3---3---------
A---7-----3------5-----3-----3----5-----------------7----5-----3---5---------
E---5-------------3-----1----------3----3-2-3-4-5--5----------1--------------
Then play the intro. For the chorus

Then on the part when he says "I know its over for me........."play this
over and over

G----------7--------
D----7-----7--------
A----7-----5--------
E----5---------------

then the solo is just finger picking the Bar Chords of
G, C A F
3 3 5 1
5 3 7 3
5 5 7 3
4 5 6 2
3 3 5 1
3 3 5 1

well that is the Song if you have any questions email me at
[email protected]




Ваше мнение



Капча