Verse Riff A (For Variation skip notes in parenthesis)
----------------------------------------------
----------------------------------------------
----------------------------------------------
-7-(7)-7-(7)----------------------------------
-5-(5)-5-(5)-7-7-7-7-7-7-7-7-4-4-4-4-6-6-6-6--
-------------5-5-5-5-5-5-5-5-2-2-2-2-4-4-4-4--
Verse Riff B
-------------------------
-------------------------
-------------------------
-7-7-7-7-----------------
-5-5-5-5-7-7-7-7-7-7-7-7-
---------5-5-5-5-5-5-5-5-
Verse Riff C
------------------
------------------
------------------
-7-7-7-7----------
-5-5-5-5--7-7-7-7-
----------5-5-5-5-
Pre Chorus
----------------------------------------------------------
----------------------------------------------------------
----------------------------------------------------------
-77777777-----9999-7777-6666-4444-3333-4444-4444-4444-4444
-55555555-777-7777-5555-4444-2222-1111-2222-2222-2222-2222
----------555---------------------------------------------
Fill A
----------------
----4-----4-----
---4-4---4-4----
--4---4-4---4---
-2-----2-----2--
----------------
Chorus Riff A
-------------------------------------
-------------------------------------
-------------------------------------
-7--7---------9-9------------------
-5--5-7--77---7-7--4-4-4-4---------
------5--55---------2-2-2-2---------
Chorus Riff B
--------------------------------------
------------------------11------------
----------------------11--11----------
-7--7-------9-9/11--11------11--------
-5--5--7-77-7-7/-9-9----------9-------
-------5-55---------------------------
Solo
B
----------------------------
-4/6-6-6-4-2-4-4(6)-4-2----
-------------------------4-2
----------------------------
----------------------------
----------------------------
B B R
-------------------------------0---0-5----444-5-------
-4/6-6-6-4-2-4-4(6)-4(6)(4)p2h4--------55-555-7-------
---------------------------------------66-------------
-----------------------------------------------------
------------------------------------------------------
------------------------------------------------------
e------------------------------12
B-----12---12--12-----12--12---12
G-7/12--12---12--12-13--13--13-13
Progression
Verse Riff Ax2
Verse Riff B
Verse Riff A
Verse Riff C
Verse Riff D
Verse Riff Aw/variation
Verse Riff A
Verse Riff B
Verse Riff A
Verse Riff C
Verse Riff D
PreChorus w/Fill A
Chorus Riff Ax2
Chorus Riff B
Solo
Verse Riff A
Verse Riff B
Verse Riff a
Verse Riff C
Prechorus
Chours A
Chorus B
Outro
-----------
-7-7---------
-5-5-7--------
-----5------




Ваше мнение



Капча