song:I'm a believer
artist:smashmouth
made by richard head([email protected])(don't you dare e-mail me)
intro:
E---------------------------------------------------------------------
B---------------------------------------------------------------------
G---------------------------------------------------------------------
D-----9-----9-----9---------------------------------------------------
A-9h11--9h11--9h11--9h11p9-7------------------------------------------
E---------------------------------------------------------------------
chorus:
E---------------------------------------------------------------------
B---------------------------------------------------------------------
G---------------------------------------------------------------------
D---------------------------------------------------------------------
A---------------------------------------------------------------------
E-0-0-4-5-5-4-0-0-4-5-7-5-4----REPEAT 4 TIMES-------------------------
verse(chords) (play softly):
E-----4-4-5-5
B-----4-4-5-5
G-1-1-5-5-6-6
D-2-2-6-6-7-7 I think that's right.....
A-2-2-6-6-7-7
E-----4-4-5-5




Ваше мнение



Капча