BTAB: Can't Get Enough of You Baby
Artist: Smashmouth
Album: Can't Hardly Wait (soundtrack)
Author: Rattman ([email protected])

**Padrino's Bass Tab Exclusive!**

Verse and Chorus:
G--------------------
D--------------------
A------2--2------2h4-
E-2--2------2--2-----

Pre-Chorus:
Listen for precise amount of picking.
G-----------------------------------------------------------------
D-----------------1-1-1-1-1-1-1-1-----------------1-1-1-1-1-1-1-1-
A-----------------------------------------------------------------
E-1-1-1-1-1-1-1-1-----------------1-1-1-1-1-1-1-1-----------------

G-------------------------------------------------
D-------------------------------------------------
A-------------------------2-2-2-2-4-4-4-4-4-4-4-4-
E-1-1-1-1-1-1-1-1-4-4-4-4-------------------------

Taken from Padrino's Bass Tab Archive: http://members.xoom.com/jszalma/




Ваше мнение



Капча