t. See http://www.olga.net/faq/ for more information. #
Date: Mon, 10 Jan 2000 00:57:29 -0800 (PST)
From: Jaakko Pimperi
Subject: m/mott_the_hoople/all_the_young_dudes.crd
Mott the Hoople - "All the Young Dudes"
EMI Music Publishing LTD
Words By : David Bowie
Music By : David Bowie
--------------------------------------------
Tabbed By: Jaakko Pimperi ([email protected])
10.8.1998 V1.0
I could not find this great piece of music anywhere in the net
so I figured it out by myself. By the way this is my first tab so
there are mistakes and missing parts (I'm not so sure about the
chords either)
NOTE: When there is A5 the distorted elec. guitar goes A5 and
messes with a while. Acoustical goes plain A
INTRO:
-----
D A Bm7 D/A
e-|--------------------------------------------------|
A-|--7------7----------------------------------------|
D-|----7------9b11b9b11b9--6--7-------7-6b7b6b7b6----|
G-|------7-----------------------9-------------------|
B-|--------------------------------9-----------------|
E-|--------------------------------------------------|
F#m A5
e-|--------------------------------------------------|
A-|--------------------------------------------------|
D-|------6-6-6-6-6-6-6-6-6-/4-/2---6-6-6-6-----9b11--|
G-|-9-7------------------------------------9-7-------|
B-|--------------------------------------------------|
E-|--------------------------------------------------|
VERSE1:
------
A D A/C#
Bm D/A
F#m A5
D A/C#
Bm D/A F#m
A5
Em F#7 Bm
The television man ......
G D A5
A5
CHORUS:
------
D A/C# Bm7
Ah all the young dudes
D/A Am
G F
C/E G C A/C# D
A/C# Bm7
D/A Am
G F
C/E G C A/C# D
VERSE2
CHORUS X 3 and fade out
------
Questions, comments, corrections, requests etc. to [email protected]




Ваше мнение



Капча