Song: without you
By : the almighty -MOTLEY CRUE-!
Transcribed by: silkmoth - [email protected]
Any problems, let me know.
Intro
Gtr I
|--------------||-------------------------|
|--------------||-------------------------|
|--------4S====||=12s===14S16-------------|
|--------------||---------------------/12-|
|--------------||-------------------------|
|--------------||-------------------------|
|
| Gtr II
|--------------||-----3-------------7-----|
|--------------||-----3-------------------|
|--------------||-----0-----------9-------|
|--------------||---------------9---------|
|--------------||-------------7-----------|
|----------15-||--3----------------------|
|--------------------------------------|------------------||
|--------------------------------------|-13s12------------||
|-12--(12)-14s12s14-------------------|-------12-9S12----||
|---------------------14-----(14)------|------------------||
|--------------------------------------|------------------||
|--------------------------------------|------------------||
|
|-------3----------------------7-------|------------------||
|-------3-------------------------8----|------------------||
|-------0------------------9--------9--|--2-------4--5----||
|------------------------9-------------|--2-------4--5----||
|----------------------7---------------|--0-------2--3----||
|--3-----------------------------------|------------------||
1st Verse
Gtr III
|-----------------------------|-------------------------------|
|-----------------------------|-------------------------------|
|-(12)------------------------|-(12)-----------------12-------|
|-----------------------------|----------------------14-------|
|-----------------------------|-------------------------------|
|-----------------------------|-------------------------------|
|
| Gtr III
|-----------------------------|-------------------------------|
|-----------------------------|--12-----(12)-13p=12--13h15p13-|
|-----------------12-12-------|--12-----(12)-12-(12)-12-------|
|-----------------12-14p12----|--12-----(12)-14p=12--14-------|
|----------10-/14----------14-|-------------------------------|
|-----------------------------|-------------------------------|
Gtr III
|-------------------------|--------------12s10----10-8-8s10-|
|-------------------------|--------------12s10----10-8-8s10-|
|-5---7-/9-12-12s14s12s14-|-12-----------------12-----------|
|-5---7-/9-12-12s14s12s14-|-12------------------------------|
|-------------------------|-10--(10)-10---------------------|
|-5---7-/8----------------|---------------------------------|
|------------------------------|
|-12----(12)-13p=12--13p=12----|
|-12----(12)-12-(12)-12-(12)---|
|-12----(12)-14p=12--14p=12----|
|------------------------------|
|------------------------------|
|---------------------------------|-----7--8----|
|------------13-12----13-15-13----|-5---7--8----|
|-12----(12)-12-12----12-12-12----|-5---7--9----|
|-12----(12)-------14----------14-|-5---7-10----|
|---------------------------------|-------10----|
|---------------------------------|-5---7--8----|
|---------------------------------------||
|---------------------------------------||
|-----------------12-14-12--------------||
|-----------------12-14-12-12-12-10h12--||
|-10--(10)-10-/14----------12-12-10h12--||
|---------------------------------------||
Gtr I
|-------------------|----------------14-----15--14-------|---------------------|
|-------------------|-------------15----15---------15----|---------------------|
|-------------------|--------7S14---------------------14-|-17--------16--------|
|-------------------|------------------------------------|---------------------|
|-------------------|------------------------------------|---------------------|
|-8--(8)-8-7--(7)-7-|-6--(6)-6S10----------(10)-------10-|--8--(8)-8--7--(7)-7-|
2nd Verse
Gtr I
|--------------||----------------------------------|
|-3--5--6s=10--||-12-------------------------------|
|-3--5--7s=10--||-12-------------------------------|
|--------------||------------------2-------4h5-----|
|-5--7--8s=12--||-14-------0h2---------------------|
|-6------------||--3-------------------------------|
|
| Gtr III
|--------------||----------0---3-----------0---3---|
|--------------||------3-----3---3-----3-----3---3-|
|--------------||----4---4-----------4---4---------|
|--------------||--5-------------------------------|
|--------------||----------------------------------|
|--------------||----------------------------------|
|-----------------3-------5-7-------|
|-----------------5-------7-8-------|
|-4-------5h7-----------------------|
|-----------------2-------4-5-------|
|---------0h2-----------------------|
|-3---------------------------------|
|
|---------0---3-----------0---3-----|
|-----3-----3---3-----3-----3---3---|
|---4---4-----------4---4-----------|
|-5---------------------------------|
|-----------------------------------|
|-----------------------------------|
|------------|---------3--------------7-----|
|------------|---------3--------------------|
|-5----------|---------0------------9-------|
|-2---4-5----|--------------------9---------|
|-0---2-3----|------------------7-----------|
|------------|-3----------------------------|
|
|------------|---------0---3--------0-7-----|
|------------|-----3-----3---3----0-------8-|
|------------|---4---4----------4-------9---|
|------------|-5----------------------------|
|------------|------------------------------|
|------------|------------------------------|
|------------|---------3---------------7------|---------------------||
|------------|---------3---------------8---8-|---------------------||
|-5----------|---------0-------------9-----9-|-5--(5)----------5---||
|-2---4-5----|-----------------2---9----------|-2--(2)-4-5-(5)------||
|-0---2-3----|-------------------7------------|-0--(0)-2-3-(3)------||
|------------|-3------------------------------|---------------------||
|
|------------|---------0---3---------0-7------|---------------------||
|------------|-----3-----3---3-----0-------8--|---------------------||
|------------|---4---4-----------4-------9----|---------------------||
|------------|-5------------------------------|---------------------||
|------------|--------------------------------|---------------------||
|------------|--------------------------------|---------------------||
|---------------------------|
|---------------------------|
|-12s===14-/16--------------|
|-----------------------/12-|
|---------------------------|
|---------------------------|
|
|-----3--------------7-----|
|-----3--------------8-----|
|-----0------------9--------|
|----------------9----------|
|--------------7------------|
|--3------------------------|
|---------------------------------|-------------------||
|---------------------------------|-13s12-------------||
|-12--(12)s14s12------------------|-------12-9-/12----||
|----------------/14--------------|-------------------||
|---------------------------------|-------------------||
|---------------------------------|-------------------||
|
|-------3------------------7------|-------------------||
|-------3--------------------8----|-------------------||
|-------0----------------9-----9-|--2-------4---5----||
|----------------------9----------|--2-------4---5----||
|--------------------7------------|--0-------2---3----||
|--3------------------------------|-------------------||
3rd Verse
Gtr III
|------------0---3----------0---3---|
|--------3-----3---3----3-----3---3-|
|-(12)-4---4----------4---4---------|
|---5-------------------------------|
|-----------------------------------|
|-----------------------------------|
|---------0---3----------0---3---|---0-0---------0---------|
|-----3-----3---3----3-----3---3-|-------0-----3---3---3---|
|---4---4----------4---4---------|-2-----------------0-----|
|-5------------------------------|-------------------------|
|--------------------------------|-------------------------|
|--------------------------------|-5-------7-8-------------|
|---------0---3-----------------------------||
|-----3-----3----3--------------------------||
|---4---4-------------12-14-12----12--------||
|-5-------------------12-14-12-14-12-12-----||
|---------------10S12----------14----12-----||
|---------------------------------------15-||
|
| Gtr II
|-------------------------------------------||
|-------------------------------------------||
|-------------------------------------------||
|-------------------------------------------||
|-------------------------------------------||
|-------------------------------------------||
|-------------------|----------------14-----15--14--------|
|-------------------|-------------15----15---------15-----|
|-------------------|--------7s14---------------------14--|
|-------------------|-------------------------------------|
|-------------------|-------------------------------------|
|-------------------|-------------------------------------|
|
|-------------------|-------------------------------------|
|-------------------|-------------------------------------|
|-------------------|-------------------------------------|
|-------------------|-------------------------------------|
|-------------------|-------------------------------------|
|-8--(8)-8-7--(7)-7-|-6--(6)-6s10----------(10)-------10--|
|---------------------|--------------|
|---------------------|-3--5--8s=10--|
|-17--------16--------|-3--5--7S=10--|
|---------------------|--------------|
|---------------------|-5--7--8S=12--|
|---------------------|--------------|
|
|---------------------|--------------|
|---------------------|--------------|
|---------------------|--------------|
|---------------------|--------------|
|---------------------|--------------|
|--8--(8)-8--7--(7)-7-|-6------------|
4th Verse
|----------------------------------|-----------------3-------5-----7-||
|-12-------------------------------|-----------------5-------7-----8-||
|-12-------------------------------|-4-------5h====7-----------------||
|----------------------------------|---------------------------------||
|-14-------------------------------|---------------------------------||
|----------------------------------|---------------------------------||
|
|----------------------------------|---------------------------------||
|----------------------------------|---------------------------------||
|--------------------------4-----5-|---------------------------------||
|------------------2---------------|-----------------2-------4-----5-||
|----------0-----2-----------------|---------0h====2-----------------||
|--3-------------------------------|-3-------------------------------||
|
| Gtr III
|----------0---3-----------0---3---|---------0---3-----------0---3---||
|------3-----3---3-----3-----3---3-|-----3-----3---3-----3-----3---3-||
|----4---4-----------4---4---------|---4---4-----------4---4---------||
|--5-------------------------------|-5-------------------------------||
|----------------------------------|---------------------------------||
|----------------------------------|---------------------------------||
Gtr I
|------------|----3-------------7--|
|------------|----3-------------8--|
|-5----------|----0-----------9-----|
|-2---4-5----|----------2---9-------|
|-0---2-3----|------0h2---7---------|
|------------|-3--------------------|
|------------|----3------------------|-------------------||
|------------|----3------------------|-------------------||
|-5----------|----0------------------|-5--(5)------------||
|-2---4-5----|----------2-------4--5-|-2--(2)-4-5-(5)----||
|-0---2-3----|------0-2--------------|-0--(0)-2-3-(3)----||
|------------|-3---------------------|-------------------||
|
| Gtr II
|------------|------------------7---|-------------------||
|------------|------------------8---|-------------------||
|------------|----------------9------|-------------------||
|------------|--------------9--------|-------------------||
|------------|------------7----------|-------------------||
|------------|-----------------------|-------------------||
Bridge
Gtr III
|----10----10-------10---------------5--------|
|-------------10----------------5------5----5-|
|-------11-------11----11----6----6-------6---|
|---------------------------------------------|
|---------------------------------------------|
|---------------------------------------------|
|
| Gtr III
|-14----14----14----14----12---12---12---12---|
|-15----15----15----15----14---14---14---14---|
|---------------------------------------------|
|---------------------------------------------|
|---------------------------------------------|
|---------------------------------------------|
|------------3-------------------3--------|----10----10-------10---------------5--------|
|-------5------5----5-------3------3----3-|-------------10----------------5------5----5-|
|----5----5-------5------4----4-------4---|-------11-------11----11----6----6-------6---|
|-----------------------------------------|---------------------------------------------|
|-----------------------------------------|---------------------------------------------|
|-----------------------------------------|---------------------------------------------|
|
|-12---12---12---12---10---10---10---10---|-14----14----14----14----12---12---12---12---|
|-13---13---13---13---12---12---12---12---|-15----15----15----15----14---14---14---14---|
|-----------------------------------------|---------------------------------------------|
|-----------------------------------------|---------------------------------------------|
|-----------------------------------------|---------------------------------------------|
|-----------------------------------------|---------------------------------------------|
Gtr I
|------------3--------------------3--------|-------------|---------------|
|-------5------5----0-------3-------3----3-|-------------|------8--------|
|----5----5-------5------4-----4-------4---|-------------|-5----7--------|
|------------------------------------------|-7-----------|-5----5--------|
|------------------------------------------|-5----7------|-3-------------|
|------------------------------------------|------5---x-|---------------|
|
|-12---12---12---12---10---10----10---10---|-------------|---------------|
|-13---13---13---13---12---12----12---12---|-------------|---------------|
|------------------------------------------|-------------|---------------|
|------------------------------------------|-------------|---------------|
|------------------------------------------|-------------|---------------|
|------------------------------------------|-------------|---------------|
|
| Gtr I Gtr II
| ~
|------------------------------------------|-------------|---------------|
|------------------------------------------|-------------|---------------|
|------------------------------------------|-------------|---------------|
|------------------------------------------|-------------|---------------|
|-----------------------------------2--3---|-------------|------5----2-3-|
|---------------------------x----3--------|-------------|------3--3-----|
|-------------|------------||
|-------------|------8-----||
|-------------|-5----7-----||
|-7-----------|-5----5-----||
|-5----7------|-3----5-----||
|------5---x-|------3-----||
|
| Gtr II
|-------------|------------||
|-------------|------------||
|-------------|------4/----||
|-------------|------------||
|-------------|------------||
|-------------|------------||
Slide solo
|---------------------------|---------------------------------|
|---------------------------|---------------------------------|
|-12--------11s12-----------|------------------------------2/-|
|-----------------12-(12)---|-14s12s14s=12s14---14s16-(16)----|
|---------------------------|---------------------------------|
|---------------------------|---------------------------------|
|
| ~~ ~~~ ~~~
|---------------------------|---------------------------------|
|---------------------------|---------------------------------|
|---------------------------|---------------------------------|
|---------------------------|--------------------7------------|
|--3--(3)-5S=2--------(2)-5S|==1----(1)-------1S=5------------|
|---------------------------|---------------------------------|
|---------------------------|----------------------------------|
|---------------------------|----------------------------------|
|-12--------11s12-----------|----------------------------------|
|-----------------12-(12)---|-14s12-14s=12---12S14S12S14S12----|
|---------------------------|----------------------------------|
|---------------------------|----------------------------------|
|
| ~~ ~~~ ~~~
|---------------------------|----------------------------------|
|---------------------------|----------------------------------|
|---------------------------|----------------------------------|
|---------------------------|-----------------7----------------|
|--3--(3)-5S=2--------(2)-5S|==1----(1)----1S=5----------------|
|---------------------------|----------------------------------|
|----------------------------/17s15-(15)---|-17s15-12S17--15-12---10--(10)S15-|
|-------12-13S15----13-12------------------|----------------------------------|
|---/12-------------------12---------------|----------------------------------|
|------------------------------------------|----------------------------------|
|------------------------------------------|----------------------------------|
|------------------------------------------|----------------------------------|
|
| ~ ~~ ~~~
|------------------------------------------|----------------------------------|
|------------------------------------------|----------------------------------|
|------------------------------------------|----------------------------------|
|------------------------------------------|-----------------------7----------|
|-3-----------(3)-5S=======2---------(2)-5S|==1-------(1)-------1S=5----------|
|------------------------------------------|----------------------------------|
|-20s19--------------20s19-20-22-(22)---|-/10s=12--13s=17s==||
|-------20-20-(20)-----------------------|-/11S=13--15S=18S==||
|----------------------------------------|-------------------||
|----------------------------------------|-------------------||
|----------------------------------------|-------------------||
|----------------------------------------|-------------------||
|
| ~~~ ~~~
|----------------------------------------|-------------------||
|----------------------------------------|-------------------||
|----------------------------------------|-------------------||
|----------------------------------------|-------------------||
|--3-----------(3)-5S=2-----------(2)--5S|===1---------------||
|----------------------------------------|-------------------||
|-19------------------------------|-(19)------------------------------|
|-20------------------------------|-(20)------------------------------|
|---------------------------------|------------------------------------|
|---------------------------------|------------------------------------|
|---------------------------------|------------------------------------|
|---------------------------------|------------------------------------|
|
| Gtr III
|----------0---3----------0---3---|-------------0---3----------0---3---|
|------3-----3---3----3-----3---3-|---------3-----3---3----3-----3---3-|
|----4---4----------4---4---------|-------4---4----------4---4---------|
|--5------------------------------|---5--------------------------------|
|---------------------------------|------------------------------------|
|---------------------------------|------------------------------------|
Gtr III
|-------0----|---------0---3----------0---3---|
|-1---3-3----|-----3-----3---3----3-----3---3-|
|-2---4-0----|---4---4----------4---4---------|
|-2---4-2----|-5------------------------------|
|-0---2-3----|--------------------------------|
|------------|--------------------------------|
|-----0------0--|---------0---3----------0---3---|
|-1-----0-3--3--|-----3-----3---3----3-----3---3-|
|-2-------4--0--|---4---4----------4---4---------|
|-2-------4--2--|-5------------------------------|
|-0-------2--3--|--------------------------------|
|---------------|--------------------------------|
Gtr I
|--------0-(0)----|-(0)----*|
|--------3-(3)----|-(3)----*|
|-5--5---0-(0)----|-(0)----*|
|-2--2-4-2-(2)----|-(2)----*|
|-0--0-2-3-(3)----|-(3)----*|
|-----------------|--------*|




Ваше мнение



Капча