Symbols
Italian translation
p = press = premuto leggermente senza plettro
e = empty = senza premere la corda, a vuoto
?! = indica che la nota da suonare и quella,
ma il suono che si sente и diverso
/ = leva dal basso in alto
\ = leva dall'alto in basso
I have tabbed this song in G but the real tablature is in A (coming soon)!!
1|-----------------------------------------------------------------------
2|-------------------------------------------------6-6-5---5---p6-e5-----
3|------------3-3-2------3---3-----3-5---3-3-2-----5-5-5-----5-------5---
4|------------3-3-2------3---3-----3-5---3-3-2-----5-5-5---------------5-
5|-----------------------------------------------------------------------
6|---3?/---3---------3-3---3-----------3-------3-3-----------------------
1|-----------------------------------------------------------------------
2|-------------------------------------------6-6-5---5---p6-e5-----------
3|-------3-3-2-----3---3-----3-5---3-3-2-----5-5-5-----5-------5---------
4|-------3-3-2-----3---3-----3-5---3-3-2-----5-5-5---------------5-------
5|-----------------------------------------------------------------------
6|---3---------3-3---3-----------3-------3-3-----------------------------
1|-----------------------------------------------------------------------
2|-------------------------------------------6-6-5---5---p6-e5-----------
3|-------3-3-2-----3---3-----3-5---3-3-2-----5-5-5-----5-------5---------
4|-------3-3-2-----3---3-----3-5---3-3-2-----5-5-5---------------5-------
5|-----------------------------------------------------------------------
6|---3---------3-3---3-----------3-------3-3-----------------------------
1|-----------------------------------------------------------------------
2|-------------------------------------------6-6-5---5---p6-e5-----------
3|-------3-3-2-----3---3-----3-5---3-3-2-----5-5-5-----5-------5---------
4|-------3-3-2-----3---3-----3-5---3-3-2-----5-5-5---------------5-------
5|-----------------------------------------------------------------------
6|---3---------3-3---3-----------3-------3-3-----------------------------
1|-------------------------------------------------------------------
2|-------------------------------------------------------------------
3|-------------------------------------------------------------------
2nd Guitar 4|-------------------------------------------------------------------
5|-------------------------------------------------------------------
6|---3-3-3-3-3-3-3-3-3-3-3-3-3-3-3-3-3-3-3-3-3-3-3-3-3-3-3-3-3-3-3---
1|---------------------------|-----------------------------------------------|
2|---------------------------|---------------------------p6-e5---p6-e5-------|
3|---7-5---7-5---5-3---7-5---|---7-5---7-5---5-3---7-5---------5-------5-----|
1st Guitar 4|---5-5---5-5---3-3---5-5---|---5-5---5-5---3-3---5-5-------------------5---|
5|---------------------------|-----------------------------------------------|
6|---------------------------|-----------------------------------------------|

1|-----------------------------------------------------------------------
2|-------------------------------------------6-6-5---5---p6-e5-----------
3|-------3-3-2-----3---3-----3-5---3-3-2-----5-5-5-----5-------5---------
4|-------3-3-2-----3---3-----3-5---3-3-2-----5-5-5---------------5-------
5|-----------------------------------------------------------------------
6|---3---------3-3---3-----------3-------3-3-----------------------------
1|-----------------------------------------------------------------------
2|-------------------------------------------6-6-5---5---p6-e5-----------
3|-------3-3-2-----3---3-----3-5---3-3-2-----5-5-5-----5-------5---------
4|-------3-3-2-----3---3-----3-5---3-3-2-----5-5-5---------------5-------
5|-----------------------------------------------------------------------
6|---3---------3-3---3-----------3-------3-3-----------------------------
Tabbed by Fabio Illuzzi
(mail: [email protected])
ok ok... patience!
see you soon




Ваше мнение



Капча