too young to fall in love
motley crue
drop D tuning-DGCFAD
-slide up
/ -slide down
^ -use bar
~ -let ring
Intro
------------------------------------------------
------------------------------------------------
----------------------------7-----5--------5----
----------------------------7-----7--------5----
-------------17/---------0-----0-----0--0-----0-
------------------------------------------------
----------------------------------------------------------------
----------------------------------------------------------------
--4--5------------7-----5--------5----4----5------7-----5-------
--5--5------------7-----7--------5----5----5------7-----7-------
---------------0----0-----0---0----------------------0-----0--0-
--------0--3----------------------------0------1----------------
------------------------------------------------------------
------------------------------------------------------------
--5-----4--5------------------------------------------------
--5-----5--5------------9-----7--------10---------9---------
-----0------------------7-----5--------8----------7--3--2---
--------------0---0--0-----0-----0--0------0--0-----------3-
--------------------------------------------------------------------
--------------------------------------------------------------------
------7-----5--------5------4--5----------7-----5--------5-----4--5-
------7-----7--------5------5--5----------7-----7--------5-----5--5-
---0-----0-----0--0-----0--------------------0-----0--0-----0-------
-----------------------------------0---3----------------------------
-------------------------------------------------------------
-------------------------------------------------------------
-----------7-----5--------5-----4--5-------------------------
-----------7-----7--------5-----5--5-----------9-----7-------
--------------0-----0--0-----0-----------------7-----5-------
---0---1-----------------------------0---0--0-----0-----0--0-
------------------------------------------------------------------
------------------------------------------------------------------
------------------------------------------------------------------
---10--------9--9--9--9---------9-----7--------10---------9-------
---8---------7--7--7--7---------7-----5--------8----------7--3--2-
-------0--0---------------0--0-----0-----0--0------0--0-----------
Verse
---------------------------------------------------------------
--------------------------------------------------------------
----------5--------5--------5--------5--------7----5--------5-
----------7--------7--------7--------7--------5----3--------3-
-------0-----0--0-----0--0-----0--0-----0--0-----------0--0----
---3-----------------------------------------------------------
-----------------------------------------------------------------
-----------------------------------------------------------------
---------5--------5--------5--7---5--------5--------5--------5---
---------3--------3--------3--5---7--------7--------7--------7---
--0--0-----0--0-----0--0-------------0--0-----0--0-----0--0----0-
-----------------------------------------------------------------
----------------------------------------------------------------
----------------------------------------------------------------
------7-----5--------5--------5--------5--------5--5---4-------
------5-----3--------3--------3--------3--------3--3---2--2--2-
---0------------0--0-----0--0-----0--0-----0--0-----------------
----------------------------------------------------------------
----------------------------------------------------------------
---------------------------------------------------------------
--------------5--------5--5--5--5--5--------5--------5--------5-
--2--2--2--2--3--3--3--3--3--3--3--3--------3--------3--------3-
--------------------------------------0--0-----0--0-----0--0----
----------------------------------------------------------------
----------------------------------------------------------------
-------------------------------------------------------------
--------5--5--4--------------------5--------5--5--5--5--4----
--------3--3--2--2--2--2--2--2--2--3--3--3--3--3--3--3--2--0-
--0--0-------------------------------------------------------
-------------------------------------------------------------
------------------------------------------
------------------------------------------
-----5--------4--------5--------4--5--/-7-
-----3--------2--0-----3--------2--3--/-5-
--0-----0--0--------0-----0--0------------
------------------------------------------
Chorus
---------------------------------------------------------
---------------------------------------------------------
----7-----5--------5-----4--5---------7-----5-------5----
----7-----7--------5-----5--5---------7-----7-------5----
--0----0-----0--0-----0------------------0-----0--0----0-
-------------------------------0---3---------------------
--------------------------------------------------------------
--------------------------------------------------------------
--4--5--------7-----5--------5-----4--5-----------------------
--5--5--------7-----7--------5-----5--5------------9-----7----
-----------------0-----0--0-----0------------------7-----5----
--------0--1-----------------------------0---0--0-----0-----0-
-----------------------------------------------------------
-----------------------------------------------------------
-------------------------------7-----5--------5-----4--5---
-----10--------9---------------7-----7--------5-----5--5---
-----8---------7--3--2------0-----0-----0--0-----0---------
--0------0--0-----------3--------------------------------0-
-----------------------------------------------------------------
-----------------------------------------------------------------
-----7-----5--------5-----4--5---------7-----5--------5-----4--5-
-----7-----7--------5-----5--5---------7-----7--------5-----5--5-
--------0-----0--0-----0------------------0-----0--0-----0-------
--3------------------------------0--1----------------------------

-------------------------------------------------------------
-------------------------------------------------------------
-------------------------------------------------------------
------------9-----7--------10--------9--9--9--9---------9----
------------7-----5--------8---------7--7--7--7---------7----
--0---0--0-----0-----0--0------0--0---------------0--0-----0-
Verse
---------------------------------------------------------------
---------------------------------------------------------------
-------------------------------------5--------5--------5-------
--7--------10--------9---------------7--------7--------7-------
--5--------8---------7--3--2------0-----0--0-----0--0-----0--0-
-----0--0------0--0-----------3--------------------------------
--------------------------------------------------------------
--------------------------------------------------------------
---5--------7----5--------5--------5--------5--------5--7--5-
---7--------5----3--------3--------3--------3--------3--5--7-
------0--0-----------0--0-----0--0-----0--0-----0--0----------
--------------------------------------------------------------
---------------------------------------------------------------
---------------------------------------------------------------
--------5--------5--------5--------7---5--------5--------5----
--------7--------7--------7--------5---3--------3--------3----
--0--0-----0--0-----0--0-----0--0----------0--0-----0--0-----0-
---------------------------------------------------------------
-----------------------------------------------------------------
-----------------------------------------------------------------
-----5--------5--5--4-----------------------5---------5--5--5--5-
-----3--------3--3--2--2--2--2--2--2--2--3--3--3--3--3--3--3-----
--0-----0--0-----------------------------------------------------
-----------------------------------------------------------------
----------------------------------------------------------------
----------------------------------------------------------------
--5--------5--------5--------5--------5--5--4-------------------
--3--------3--------3--------3--------3--3--2--2--2--2--2--2--2-
-----0--0-----0--0-----0--0-----0--0----------------------------
----------------------------------------------------------------
----------------------------------------------------------------
----------------------------------------------------------------
--5--------5--5--5--5--5--------5--------5--------5--------5--5-
--3--3--3--3--3--3--3--3--------3--------3--------3--------3--3-
--------------------------0--0-----0--0-----0--0-----0--0-------
----------------------------------------------------------------

-------------------------------------------------------------
-------------------------------------------------------------
--4--------------------5--------5--5--5--5--4--------5-------
--2--2--2--2--2--2--2--3--3--3--3--3--3--3--2--0-----3-------
--------------------------------------------------0-----0--0-
-------------------------------------------------------------

------------------------------
------------------------------
--4--------5--------4--5--/-7-
--2--0-----3--------2--3--/-5-
--------0-----0--0------------
------------------------------

Chorus
-----------------------------------------------------------------
-----------------------------------------------------------------
-----7-----5--------5-----4--5---------7-----5--------5-----4--5-
-----7-----7--------5-----5--5---------7-----7--------5-----5--5-
--0-----0-----0--0-----0------------------0-----0--0-----0-------
-------------------------------0----3----------------------------

--------------------------------------------------------------
--------------------------------------------------------------
-----------7-----5--------5-----4--5--------------------------
-----------7-----7--------5-----5--5------------9-----7-------
--------------0-----0--0-----0------------------7-----5-------
---0----1-----------------------------0---0--0-----0-----0--0-
------------------------------------------------------------
------------------------------------------------------------
-----------------------------7-----5--------5-----4--5------
--10--------9----------------7-----7--------5-----5--5------
--8---------7--3--2-------0-----0-----0--0-----0------------
------0--0-----------3---------------------------------0--3-
----------------------------------------------------------------
----------------------------------------------------------------
--7-----5--------5-----4--5--------7-----5--------5-----4--5----
--7-----7--------5-----5--5--------7-----7--------5-----5--5----
-----0-----0--0-----0-----------------0-----0--0-----0----------
----------------------------0---1-----------------------------0-
Solo
--7--7--7--7--7--7--7--7--7--7--5--7--4---5-----4----------
----------------------------------------6-----5---6---5--6-
-----------------------------------------------------------
-----------------------------------------------------------
-----------------------------------------------------------
-----------------------------------------------------------
----------------------------------------------------------------
--5-----5--6-----5--6--5-----5--6--5-----5----------------------
-----7--------7-----------7-----------7-----7^--7^--7^~~~--4--5-
----------------------------------------------------------------
----------------------------------------------------------------
----------------------------------------------------------------
-------------------------------------------------------------------
-------------------------------------------------------------------
--7--4--5--7--4--5--7--4--5--7--4--5--7--4--5--7--4--5--7--4--5--7-
-------------------------------------------------------------------
-------------------------------------------------------------------
-------------------------------------------------------------------
--------------------5------------------5--7--8--5--7--8--5--7-
-----------6--5--------6--5-----6--5--------------------------
--4--5--7--------7-----------7--------------------------------
--------------------------------------------------------------
--------------------------------------------------------------
--------------------------------------------------------------
---8--5--7--8--5--7--8--5--7--8--5--7--8--5--7--8--12--13--15-
--------------------------------------------------------------
--------------------------------------------------------------
--------------------------------------------------------------
--------------------------------------------------------------
--------------------------------------------------------------
--12--13--15--15--12--13--15--12--12--12--15^--15^--15^--15^-
-------------------------------------------------------------
-------------------------------------------------------------
-------------------------------------------------------------
-------------------------------------------------------------
-------------------------------------------------------------
------12--13------12--13------12----------------------------------
--15----------15-----------15------13--15--12--13------12---------
---------------------------------------------------14------12--14-
------------------------------------------------------------------
------------------------------------------------------------------
------------------------------------------------------------------
-----------------------------------------------------------------
-----------------------------------------------------------------
---10--12--10--9---9--10--9------9--10--9------9--10--12--12--10-
------------------------------12-----------12--------------------
-----------------------------------------------------------------
-----------------------------------------------------------------
---------------------------------------------------------------
---------------------------------------------------------------
---9--9-----5--------5--------5--------5--------7----5-------
-------------7--------7--------7--------7--------5----3-------
----------0-----0--0-----0--0-----0--0-----0--0-----------0--0-
---------------------------------------------------------------
Verse
----------------------------------------------------------------
----------------------------------------------------------------
--5--------5--------5--------5--7------5--------5--------5------
--3--------3--------3--------3--5------7--------7--------7------
-----0--0-----0--0-----0--0--------0-----0--0-----0--0-----0--0-
----------------------------------------------------------------
----------------------------------------------------------
----------------------------------------------------------
--5--------7----5--------5--------5--------5--------5--7-
--7--------5----3--------3--------3--------3--------3--5-
-----0--0-----------0--0-----0--0-----0--0-----0--0-------
----------------------------------------------------------

Verse
----------------------------------------------------------------
----------------------------------------------------------------
-----5--------5--------5--------5--------7----5--------5-------
-----7--------7--------7--------7--------5----3--------3-------
--0-----0--0-----0--0-----0--0-----0--0-----------0--0-----0--0-
----------------------------------------------------------------

-----------------------------------------------------------------
-----------------------------------------------------------------
--5--------5--------5--7------5--------5--------5--------5-------
--3--------3--------3--5------7--------7--------7--------7-------
-----0--0-----0--0---------0-----0--0-----0--0-----0--0-----0--0-
-----------------------------------------------------------------

-------------------------------------------------------------
-------------------------------------------------------------
--7----5--------5--------5--------5--------5--5--4----------
--5----3--------3--------3--------3--------3--3--2--2--2--2-
-----------0--0-----0--0-----0--0-----0--0-------------------
-------------------------------------------------------------

-----------------------------------------------------------------
-----------------------------------------------------------------
-----------5--------5--5--5--5---5--------5--------5--------5----
--2--2--2--3--3--3--3--3--3--3---3--------3--------3--------3----
------------------------------------0--0-----0--0-----0--0-----0-
-----------------------------------------------------------------

----------------------------------------------------------------
----------------------------------------------------------------
------5--5---4--------------------5--------5--5--5--5--4--------
------3--3---2--2--2--2--2--2--2--3--3--3--3--3--3--3--2--0-----
--0-----------------------------------------------------------0-
----------------------------------------------------------------

----------------------------------------
----------------------------------------
--5--------4--------5--------4--5--/--7-
--3--------2--0-----3--------2--3--/--5-
-----0--0--------0-----0--0-------------
----------------------------------------

Chorus
-------------------------------------------------------------
-------------------------------------------------------------
----7-----5--------5-----4--5---------7-----5--------5-----4-
----7-----7--------5-----5--5---------7-----7--------5-----5-
--0-----0-----0--0-----0------------------0----0--0-----0----
-------------------------------0---3-------------------------

---------------------------------------------------------------
---------------------------------------------------------------
--5----------7-----5--------5-----4--5-------------------------
--5----------7-----7--------5-----5--5----------9-----7--------
----------------0-----0--0-----0-----------------7-----5-------
------0---1-----------------------------0--0--0-----0-----0--0-

------------------------------------------------------------
------------------------------------------------------------
----------------------------7-----5--------5-----4--5-------
--10--------9---------------7-----7--------5-----5--5-------
--8---------7--3--2------0-----0-----0--0-----0-------------
------0--0-----------3---------------------------------0--3-

-----------------------------------------------------------------
-----------------------------------------------------------------
--7-----5--------5-----4--5---------7-----5--------5-----4--5----
--7-----7--------5-----5--5---------7-----7--------5-----5--5----
-----0-----0--0-----0------------------0-----0--0-----0----------
-----------------------------0---1-----------------------------0-

------------------------------------------------------------
------------------------------------------------------------
------------------------------------------------------------
--------9-----7--------10--------9--9--9--9---------9-----7-
--------7-----5--------8---------7--7--7--7---------7-----5-
--0--0-----0-----0--0------0--0---------------0--0-----0----

Outro
---------------------------------------------------------------
---------------------------------------------------------------
----------------------------------7-----5--------5-----4--5----
--------10--------9---------------7-----7--------5-----5--5----
--------8---------7--3--2------0-----0-----0--0-----0----------
--0--0------0--0-----------3---------------------------------0-

-------------------------------------------------------------
-------------------------------------------------------------
-----7-----5--------5-----4--5--------7-----5--------5-----4-
-----7-----7--------5-----5--5--------7-----7--------5-----5-
--------0-----0--0-----0-----------------0-----0--0-----0----
--3-----------------------------0---1------------------------

Repeat Until Fade
--------------------------------------------------
--------------------------------------------------
--5-----------------------------------------------
--5------------9-----7--------10--------9---------
---------------7-----5--------8---------7--3--2---
-----0---0--0-----0-----0--0------0--0----------3-

questions email me- [email protected]




Ваше мнение



Капча