Too fast for love
motley crue
drop D tuning- DGCFAD
PM -palm mute
NH -natural harmonics
p -pull off
h -hammer on
INTRO -x2 on all
play only once
/
---|--------------------------------------------
---|--------------------------------------------
-0-|-0--2p--0p--3p--0p--4h--0p--5h--0--6h7--6h7-
-0-|--------------------------------------------
---|--------------------------------------------
---|--------------------------------------------
---------------------------------------------
---------------------------------------------
---------------------------------------------
-0---2p--0p--3p--0p--4p--0p--5p--0--6h7--6h7-
---------------------------------------------
---------------------------------------------
---------------------------------------------
---------------------------------------------
---------------------------------------------
---------------------------------------------
-0---2p--0p--3p--0p--4p--0p--5p--0--6h7--6h7-
---------------------------------------------
---------------------------------------------
---------------------------------------------
---------------------------------------------
---------------------------------------------
---------------------------------------------
-0---2p--0p--3p--0p--4p--0p--5p--0--6h7--6h7-
---------------------------------------------
---------------------------------------------
---------------------------------------------
---------------------------------------------
-0---2p--0p--3p--0p--4p--0p--5p--0--6h7--6h7-
---------------------------------------------
VERSE
------------------------------------------------------------------------
------------------------------------------------------------------------
-9-9-9-9-9---9-9---9-9-9-9-9---9-9----9-9-9-9-9---9-9---9-9-9-9-9---9-9-
-9-9-9-9-9---9-9---9-9-9-9-9---9-9----9-9-9-9-9---9-9---9-9-9-9-9---9-9-
-7-7-7-7-7---7-7---7-7-7-7-7---7-7----7-7-7-7-7---7-7---7-7-7-7-7---7-7-
------------------------------------------------------------------------
-----------------------------------------------------------------------
-----------------------------------------------------------------------
-9-9-9-9-9---9-9---9-9-9-9-9---9-9-------------------------------------
-9-9-9-9-9---9-9---9-9-9-9-9---9-9---6-6-6-6-6---6-6---6-6-6-6-6---6-6-
-7-7-7-7-7---7-7---7-7-7-7-7---7-7---6-6-6-6-6---6-6---6-6-6-6-6---6-6-
-------------------------------------4-4-4-4-4---4-4---4-4-4-4-4---4-4-
------------------------------------------------------------------------
------------------------------------------------------------------------
-2-2--------2---2-2---2-2---------2---2-2---9-9-9-9-9---9-9---9-9-9-9-9-
-2-2--------2---2-2---2-2---------2---2-2---9-9-9-9-9---9-9---9-9-9-9-9-
-0-0--------0---0-0---0-0---------0---0-0---7-7-7-7-7---7-7---7-7-7-7-7-
------4p0-------------------4p0-----------------------------------------
-------------------------------------------------------
-------------------------------------------------------
-------------------------------------------------------
-------------------------------------------------------
-0-2p0-3-0h4-0-5p0-6h7-6h7---0-2p0-3-0h4-0-5p0-6h7-6h7-
-------------------------------------------------------
CHORUS - palm muted
-----------------------------------------------------------------------
-----------------------------------------------------------------------
-4-4-4-4-4-4-4-4---4-4-4-4-4-4-4-4---2-2-2-2-2-2-2-2---2-2-2-2-2-2-2-2-
-4-4-4-4-4-4-4-4---4-4-4-4-4-4-4-4---2-2-2-2-2-2-2-2---2-2-2-2-2-2-2-2-
-2-2-2-2-2-2-2-2---2-2-2-2-2-2-2-2---0-0-0-0-0-0-0-0---0-0-0-0-0-0-0-0-
-----------------------------------------------------------------------
------------------------------------------------------------------------
------------------------------------------------------------------------
-9-9-9-9-9-9-9-9---9-9-9-9-9-9-9-7--------------------------------------
-9-9-9-9-9-9-9-9---9-9-9-9-9-9-9-7------------------------------------3-
-7-7-7-7-7-7-7-7---7-7-7-7-7-7-7-5---5-5-4-4-2-2-0-0----------------0-1-
------------------------------------------------------3-3-2-2-0-0-------
-----------------------------------------------------------------------
-----------------------------------------------------------------------
-4-4-4-4-4-4-4-4---4-4-4-4-4-4-4-4---2-2-2-2-2-2-2-2---2-2-2-2-2-2-2-2-
-4-4-4-4-4-4-4-4---4-4-4-4-4-4-4-4---2-2-2-2-2-2-2-2---2-2-2-2-2-2-2-2-
-2-2-2-2-2-2-2-2---2-2-2-2-2-2-2-2---0-0-0-0-0-0-0-0---0-0-0-0-0-0-0-0-
-----------------------------------------------------------------------
-------------------------------------------------
-------------------------------------------------
-9-9-9-9-9-9-9-9---9-9-9-9-9-9-9-9-7---7---------
-9-9-9-9-9-9-9-9---9-9-9-9-9-9-9-9-7---7---------
-7-7-7-7-7-7-7-7---7-7-7-7-7-7-7-7-5---5------2/-
-------------------------------------------------
-------------------------------------------------------------------------
-------------------------------------------------------------------------
--7-----BASS FILL----------------------4-4-4-4-4-4-4-4---4-4-4-4-4-4-4-4-
--7------------------------------------4-4-4-4-4-4-4-4---4-4-4-4-4-4-4-4-
--5-------------------------------0-1--2-2-2-2-2-2-2-2---2-2-2-2-2-2-2-2-
-------------------------------0-----------------------------------------
-----------------------------------------------------------------------
-----------------------------------------------------------------------
-2-2-2-2-2-2-2-2---2-2-2-2-2-2-2-2---9-9-9-9-9-9-9-9---9-9-9-9-9-9-9-7-
-2-2-2-2-2-2-2-2---2-2-2-2-2-2-2-2---9-9-9-9-9-9-9-9---9-9-9-9-9-9-9-7-
-0-0-0-0-0-0-0-0---0-0-0-0-0-0-0-0---7-7-7-7-7-7-7-7---7-7-7-7-7-7-7-5-
-----------------------------------------------------------------------
-------------------------------------------------------------------------
-------------------------------------------------------------------------
--7-----DRUM FILL----------------------4-4-4-4-4-4-4-4---4-4-4-4-4-4-4-4-
--7------------------------------------4-4-4-4-4-4-4-4---4-4-4-4-4-4-4-4-
--5-------------------------------0-1--2-2-2-2-2-2-2-2---2-2-2-2-2-2-2-2-
-------------------------------0-----------------------------------------
-----------------------------------------------------------------------
-----------------------------------------------------------------------
-2-2-2-2-2-2-2-2---2-2-2-2-2-2-2-2---9-9-9-9-9-9-9-9---9-9-9-9-9-9-9-9-
-2-2-2-2-2-2-2-2---2-2-2-2-2-2-2-2---9-9-9-9-9-9-9-9---9-9-9-9-9-9-9-9-
-0-0-0-0-0-0-0-0---0-0-0-0-0-0-0-0---7-7-7-7-7-7-7-7---7-7-7-7-7-7-7-7-
-----------------------------------------------------------------------
NH~~|
------------------------------9---------------5-----------
----------------------9-----8--------------5--------------
--------------9-----8-----7--------------7----------------
-----9------8-----7-------------------5-------------------
---8-----7-------------------------4----------------0-0-1-
-7--------------------------------------------------------
-----------------------------------------------------------------------
-----------------------------------------------------------------------
-4-4-4-4-4-4-4-4---4-4-4-4-4-4-4-4---2-2-2-2-2-2-2-2---2-2-2-2-2-2-2-2-
-4-4-4-4-4-4-4-4---4-4-4-4-4-4-4-4---2-2-2-2-2-2-2-2---2-2-2-2-2-2-2-2-
-2-2-2-2-2-2-2-2---2-2-2-2-2-2-2-2---0-0-0-0-0-0-0-0---0-0-0-0-0-0-0-0-
-----------------------------------------------------------------------
repeat and fade
------------------------------------------------
------------------------------------------------
-9-9-9-9-9-9-9-9---9-9-9-9-9-9-9-7--7-----------
-9-9-9-9-9-9-9-9---9-9-9-9-9-9-9-7--7-------0-1-
-7-7-7-7-7-7-7-7---7-7-7-7-7-7-7-5--5-----0-----
------------------------------------------------
questions email me- [email protected]




Ваше мнение



Капча