Ten Seconds To Love--Motley Crue
Transcribed by Ryan Adam (e-mail [email protected])
This tune is actually played on the record tuned to D. It works fine if you
tune standard, and Drop your low E to D, the only problem is the stretch when
playing the Bb of the Intro Riff (actually, the main riff of the song...) As
for the lead stuff being played throughout the song, the little things are
easy to figure out, the solo is a little tricky (for me, anyway). Have fun
with it, and if you have the s
olo, post it, cuz I'd like to see it.
Music (Nikki Sixx--E-mail [email protected])
[-Riff 1-----] [Riff1] [Riff1]
E-|------------------|------------|-----|-----------|-----|-------------------|
B-|------------------|------------|-----|-----------|-----|-------------------|
G-|------------------|------------|-----|-----------|-----|-5-7-8-------------|
D-|------------------|--5-5---5-5-|-----|--3-3--3-3-|-----|-5-7-8--3-5-5-5----|
A-|----------1------
-|--5-5---5-5-|-----|--3-3--3-3-|-----|-3-5-6--3-5-5-5----|
D-|-0--3--5-----5----|--5-5---5-5-|-----|--3-3--3-3-|-----|--------3-5-5-5----|
[---Intro Riff---4X --------]+[Chorus Riff (with Intro Riff, one time)-]
[---------This whole thing is one repetition of the Chorus Riff-----------]
[Riff1]
E-|--------------------------------------|------
------------------------|-----|
B-|--------------------------------------|------------------------------|-----|
G-|----------3-3--3----------5--5--------|---------3-3--3----------5-5--|-----|
D-|--5-5--5--3-3--1--3-3--3--5--5--3-----|-5-5--5--3-3--3--3-3--3--5-5--|-----|
A-|--5-5--5--1-1--1--3-3--3--3--3--3-----|-5-5--5--1-1--1--3-3--3--3-3--|-----|
D-|--5-5--5----------3-3--3--------3-----|-5-5--5----------3-3--3-------|-----|
[Verse Riff ------------------------------------------------------]
E-|----------------------------------|----------------------------------------|
B-|----------------------------------|----------------------------------------|
G-|----------------------------------|----------------------------------------|
D-|----------------------------------|----------------------------------------|
A-|----------------------------------|----------------------------------------|
D-|--5-5-5-5-5-5-5-
5-5-0-3-5-7-5-3-5-|-3-3-3-3-3-3-3-3-3-0-3-5-8-5-3-5--------|
[Bass Riff, after solo-repeat 7x] [after singing 10 sec. to love...this
E-|---------------------------------------------------------------------------|
B-|---------------------------------------------------------------------------|
G-|---------------------------------------------------------------------------|
D-|------------------------------------------
---------------------------------|
A-|-3-3-3-3-3-5---6-6-6-6-6---------------------------------------------------|
D-|--------------------------3-3-5--------------------------------------------|
gets played, then repeat the whole bass riff,(only one repeat of the
first part...]
Arrangement:
Intro 4x
Chorus 1x ( no words)
Verse 1x
Chorus 2x
Verse 1x
Chorus 2x
Intro 4x
Solo:
Chorus 2x
Bass Part I 7x
Bass Part II 1x
Bass Part I 1x
Bass Part II 1x
Cho
rus 2x
Intro 5x
---Words (Nikki Sixx, Vince Neil):
Here I come
My mind is set
Get ready for love
You're my ten second pet
Verse:
Touch my gun
But don't pull my trigger
Let's make history
In the elevator
Or lock the door
Shine my pistol some more
Here I cum,
Just ten seconds more
Chorus:
Ten seconds to love (x2)
Pull my trigger, my gun's loaded with your love
Ten seconds to love (x2)
Just wait honey, till I tell the boys about you
Bring a girlfriend
Maybe bring two
I got my c


Ваше мнение



Капча