ten seconds to love
motley crue
drop D tuning
x- palm mute
PM- palm mute
h- hammer on
p- pull off
b- bend
~- let ring
^- use bar
- slide up
/- slide down
ah- artificial harmonic
///- pick scrape
intro- gtr 1
PM--------|
d----------------------------
g----------------------------
c---------------2--2-x-2-x-2-
f---------------2--2-x-2-x-2-
a------0-3-0----0--0-x-0-x-0-
d--0-3-------3---------------
PM--------|
d----------------------------
g----------------------------
c---------------2--2-x-2-x-2-
f---------------2--2-x-2-x-2-
a------0-3-0----0--0-x-0-x-0-
d--0-3-------3---------------
PM--------|
d----------------------------
g----------------------------
c---------------2--2-x-2-x-2-
f---------------2--2-x-2-x-2-
a------0-3-0----0--0-x-0-x-0-
d--0-3-------3---------------
PM--------|
d----------------------------
g----------------------------
c---------------2--2-x-2-x-2-
f---------------2--2-x-2-x-2-
a------0-3-0----0--0-x-0-x-0-
d--0-3-------3---------------
PM--------|
d----------------------------
g----------------------------
c---------------2--2-x-2-x-2-
f---------------2--2-x-2-x-2-
a------0-3-0----0--0-x-0-x-0-
d--0-3-------3---------------
PM--------|
d----------------------------
g----------------------------
c--------------------x---x---
f---------------5--5-x-5-x-5-
a------0-3-0----5--5-x-5-x-5-
d--0-3-------3--3--3---3---3-
PM--------|
d------------------------------------------------------------
g------------------------------------------------------------
c---------------7-7-7---9---10-10-10---------2-2--x--2--x--2-
f---------------7-7-7---9---10-10-10---------2-2--x--2--x--2-
a------0-3-0----5-5-5-0-7-0--8-8--8---0-3----0-0--x--0--x--0-
d--0-3-------3-----------------------------0-----------------
PM--------|
d-----------------
g-----------------
c---------------2-
f---------------2-
a------0-3-0----0-
d--0-3-------3----
gtr 2, played over gtr 1
d------------------------------5---5---5---7-----8---8----10------5--
g------------------------------8b--8b--8b--10b--11b--11b--13b--x--8b-
c--------------------------------------------------------------x-----
f--------------------------------------------------------------------
a--------------------------------------------------------------------
d--5b----5b-5-5-5b-5-5-5b-5-5----------------------------------------
d--5------------------------------------------------------------
g----8--7--5-----5--5-------------------------------------------
c-------------7b-------7b--7--5-----7--5----------------------2-
f--------------------------------7--------7---5---------------2-
a------------------------------------------------7--6--5--3---0-
d---------------------------------------------------------------
verse
d-----------------------------------------
g-----------------------------------------
c--2--x-2-2--5---5--5-------------7--7--5-
f--2--x-2-2--5---5--5---5---5--5--7--7--5-
a--0--x-0-0--3---3--3---5---5--5--5--5--3-
d-----------------------3---3--3----------
d-----------------------------------
g-----------------------------------
c--2--x-2-2--5---5--5-------------7-
f--2--x-2-2--5---5--5---5---5--5--7-
a--0--x-0-0--3---3--3---5---5--5--5-
d-----------------------3---3--3----
gtr 2, 2nd time only
d--22b^-
g-------
c-------
f-------
a-------
d-------
chorus- x2
PM--------|
d----------------------------
g----------------------------
c---------------2--2-x-2-x-2-
f---------------2--2-x-2-x-2-
a------0-3-0----0--0-x-0-x-0-
d--0-3-------3---------------
PM--------|
d----------------------------
g----------------------------
c--------------------x---x---
f---------------5--5-x-5-x-5-
a------0-3-0----5--5-x-5-x-5-
d--0-3-------3--3--3---3---3-
PM--------|
d------------------------------------------------------------
g------------------------------------------------------------
c---------------7-7-7---9---10-10-10---------2-2--x--2--x--2-
f---------------7-7-7---9---10-10-10---------2-2--x--2--x--2-
a------0-3-0----5-5-5-0-7-0--8-8--8---0-3----0-0--x--0--x--0-
d--0-3-------3-----------------------------0-----------------
verse
PM--------|
d----------------------------
g----------------------------
c---------------2--2-x-2-x-2-
f---------------2--2-x-2-x-2-
a------0-3-0----0--0-x-0-x-0-
d--0-3-------3---------------
PM--------|
d----------------------------
g----------------------------
c---------------2--2-x-2-x-2-
f---------------2--2-x-2-x-2-
a------0-3-0----0--0-x-0-x-0-
d--0-3-------3---------------
gtr 2 lead
d--22b--x--22b-
g--------------
c--------------
f--------------
a--------------
d--------------
PM--------|
d----------------------------
g----------------------------
c---------------2--2-x-2-x-2-
f---------------2--2-x-2-x-2-
a------0-3-0----0--0-x-0-x-0-
d--0-3-------3---------------
PM--------|
d----------------------------
g----------------------------
c---------------2--2-x-2-x-2-
f---------------2--2-x-2-x-2-
a------0-3-0----0--0-x-0-x-0-
d--0-3-------3---------------
PM--------|
d----------------------------
g----------------------------
c---------------2--2-x-2-x-2-
f---------------2--2-x-2-x-2-
a------0-3-0----0--0-x-0-x-0-
d--0-3-------3---------------
solo- gtr 2 play the chorus until the end of solo
d-22b--22b--20p17~~---17-------------------------------------------------------
g------------------17---20p17--17----------------------------------------------
c--------------------------------19--19p17h19b~~----------------------12-14-17-
f-------------------------------------------------------------10-12-14---------
a-------------------------------------------------------10-12------------------
d--------------------------------------------------17/-------------------------
d------15-------17-20p17---20-20p17----------20-17-20-20-------17h19h20-------
g-15-17---17-20---------20----------20-17h19-------------17h19----------17h19-
c-----------------------------------------------------------------------------
f-----------------------------------------------------------------------------
a-----------------------------------------------------------------------------
d-----------------------------------------------------------------------------
d-17h20p17-19h20------------------20-19-17-20-20-17-17-20b-20b----5-------------
g-----------------19p17--17-19-20------------------------------8b---8-5--5------
c-----------------------------------------------------------------------8--8--7-
f-------------------------------------------------------------------------------
a-------------------------------------------------------------------------------
d-------------------------------------------------------------------------------
ah
d-------------------------------------------------------------------------
g-------------------------------------------------------------------------
c--7p5-7-7p5--------------------------------------------5-7b-p5-7p5--5-7b-
f-------------7-5--5--------------------------------5-7-------------------
a--------------------7-6-5-3-3-5-3-----0------3-5-7-----------------------
d-----------------------------------------3-5-----------------------------
d-------------------------------------------------------------------------
g----------------------------------------------------------16-17-20-17-20b-
c-------------------------------------------------12-14-17-----------------
f---------------------5b-----------------10-12-14--------------------------
a----------------------------------10-12-----------------------------------
d--5b----5-5-5-5-5-5-------5-5-5-5-----------------------------------------
d--17h20p17-----20---17--17-19-20-17-19-20-17-19-20-20-19------------
g------------20----20-------------------------------------20-x-x-20b-
c--------------------------------------------------------------------
f--------------------------------------------------------------------
a--------------------------------------------------------------------
d--------------------------------------------------------------------
d--17-17-----17-17-17-17-17------17-17-17-----17-17-17-----------
g--------20b-----------------20b----------20b-----------20b--20b-
c----------------------------------------------------------------
f----------------------------------------------------------------
a----------------------------------------------------------------
d----------------------------------------------------------------
BREAK- bass and drums only

d--8-----10-----5----5-------17----17-------17--------17---17--------17--17--
g--11b---13b----8b---8b------20b---20b---20-20b-------20b--20b---20--20b-20b-
c------------------------------------------------------------------------------
f------------------------------------------------------------------------------
a------------------------------------------------------------------------------
d------------------------------------------------------------------------------
pick scrape up
d-----------------------------------------------------------------
g-----------------------------------------------------------------
c--x///-x///---7--7---9---10----------2--2-2-2-2-2-2-2-2--2-
f--x///-x///---7--7---9---10----------2--2-2-2-2-2-2-2-2--2-
a--------------------5--5-0-7-0--8---0------0--0-0-0-0-0-0-0-0--0-
d---------------------------------------3-0-----------------------
chorus
PM--------|
d----------------------------
g----------------------------
c---------------2--2-x-2-x-2-
f---------------2--2-x-2-x-2-
a------0-3-0----0--0-x-0-x-0-
d--0-3-------3---------------
PM--------|
d----------------------------
g----------------------------
c--------------------x---x---
f---------------5--5-x-5-x-5-
a------0-3-0----5--5-x-5-x-5-
d--0-3-------3--3--3---3---3-
PM--------|
d------------------------------------------------------------
g------------------------------------------------------------
c---------------7-7-7---9---10-10-10---------2-2--x--2--x--2-
f---------------7-7-7---9---10-10-10---------2-2--x--2--x--2-
a------0-3-0----5-5-5-0-7-0--8-8--8---0-3----0-0--x--0--x--0-
d--0-3-------3-----------------------------0-----------------
PM--------|
d----------------------------
g----------------------------
c---------------2--2-x-2-x-2-
f---------------2--2-x-2-x-2-
a------0-3-0----0--0-x-0-x-0-
d--0-3-------3---------------
PM--------|
d----------------------------
g----------------------------
c---------------2--2-x-2-x-2-
f---------------2--2-x-2-x-2-
a------0-3-0----0--0-x-0-x-0-
d--0-3-------3---------------
PM--------|
d----------------------------
g----------------------------
c---------------2--2-x-2-x-2-
f---------------2--2-x-2-x-2-
a------0-3-0----0--0-x-0-x-0-
d--0-3-------3---------------
questions email me- [email protected]




Ваше мнение



Капча