Smoke the sky
by mothey crue
tabbed by silkmoth ([email protected])
all guitars tuned to drop D tuning.
Intro
D5 G5 D5
Gtr I
|----------||-------------------|-------------------|
|----------||-------------------|-------------------|
|----------||-------------------|-------------------|
|----------||-------------------|-------------------|
|----------||-------------------|-------5-(5)-------|
|--------0-||-(0)-1-2-0-3-4-0-3-|-4-0-4-5-(5)-6-7-0-|
G5
|-------------------|--------------------|
|-------------------|--------------------|
|-------------------|--------------------|
|-------------------|--------------------|
|-------------------|-------5-(5)--------|
|-(0)-1-2-0-3-4-0-3-|-4-0-4-5-(5)-6-7-0--|
D5 G5 D5 G5
Gtr II

|-----------------|-------------------|-------------------|--------------|
|-----------------|-------------------|-------------------|--------------|
|-----------------|-------------------|-------------------|--------------|
|-----------------|-------------------|-------------------|--------------|
|-----------------|-------5-(5)-------|-------------------|-----6-5----0-|
|-0-1-2-0-3-4-0-3-|-4-0-4-5-(5)-6-7-0-|-(0)-1-2-0-2-3-0-3-|-4-0-6-5----0-|
D5 G5 D5
PM------------------|
||--------------------|-------------------|
||o-------------------|-------------------|
||--------------------|-------------------|
||--------------------|-------------------|
||o-(0)-1-2-0-2-3-0-3-|-4-0-4-5-(5)-6-7-0-|
||--(0)-1-2-0-2-3-0-3-|-4-0-4-5-(5)-6-7-0-|
G5
PM------------------|
|-------------------|---------------------||
|-------------------|--------------------o||
|-------------------|---------------------||
|-------------------|---------------------||
|-(0)-1-2-0-2-3-0-3-|-4-0-4-5-(5)-6-7-0--o||
|-(0)-1-2-0-2-3-0-3-|-4-0-4-5-(5)-6-7-0---||
1st Verse
D5
|-------------------|----------------|
|-------------------|----------------|
|-------------------|----------------|
|-------------------|----------------|
|--------(0)--------|-(0)------------|
|--------(0)--------|-(0)------------|
|
| Gtr II
|-------------------|----------------|
|-13----(13)--------|-10-------------|
|-12b14-(12)--------|-10-------------|
|-------------------|--------12--10--|
|-------------------|----------------|
|-------------------|----------------|
PM
|--------------------|---------------------|
|--------------------|---------------------|
|--------------------|---------------------|
|--------------------|---------------------|
|-(0)----------------|--(0)------(0)-0-----|
|-(0)----------------|--(0)------(0)-0-0-0-|
|
|--------------------|---------------------|
|--------------------|---------------------|
|--------------------|---------------------|
|-10---12--12--12-10-|-(10)--12------------|
|--------------------|---------------------|
|--------------------|---------------------|
D5
|------------------------|--------------|
|------------------------|--------------|
|------------------------|--------------|
|------------------------|--------------|
|----------0-------------|-(0)----------|
|----------0-------------|-(0)----------|
|
|------------------------|--------------|
|-13-----(13)----(13)----|-10-----------|
|-12b14==(12)r===(12)----|-10-----------|
|------------------------|--------12----|
|------------------------|--------------|
|------------------------|--------------|
|---------------------------|----------||
|---------------------------|----------||
|---------------------------|----------||
|---------------------------|----------||
|-(0)-----------------------|---x-----||
|-(0)-----------------------|----------||
|
| ~~~~~
|---------------------------|----------||
|-13---15--15--15b17==(15)--|-(15)r----||
|---------------------------|----------||
|---------------------------|----------||
|---------------------------|----------||
|---------------------------|----------||
Pre Chorus
D5
PM PM PM| PM-| PM PM| PM| PM PM| PM-| PM PM--|
|-----------------|-------------------|-----------------|-------------------|
|-----------------|-------------------|-----------------|-------------------|
|-----------------|-------------------|-----------------|-------------------|
|-----------------|-------------------|-----------------|-------------------|
|-0---0---0-----0-|-------0---0-----0-|-----0---0-----0-|-------0---0-------|
|-0-0-0-0-0-0-0-0-|--0--0-0-0-0-0-0-0-|-0-0-0-0-0-0-0-0-|--0--0-0-0-0-0-0-0-|
|
|-8---------------|-(8)-------8-8---8-|-----------------|-------------------|
|-8---------------|-(8)-------8-8---8-|-7---------------|-(7)---------------|
|-9---------------|-(9)-------9-9---9-|-7---------------|-(7)---------------|
|-----------------|-------------------|-7---------------|-(7)---------------|
|-----------------|-------------------|-----------------|-------------------|
|-----------------|-------------------|-----------------|-------------------|
D5
PM PM PM| PM-| PM PM|
|-----------------|---------------------|
|-----------------|---------------------|
|-----------------|---------------------|
|-----------------|---------------------|
|-0---0---0-----0-|-------0---0-------0-|
|-0-0-0-0-0-0-0-0-|--0--0-0-0-0-0--0--0-|
|
|-5---------------|-(5)-----------(5)-7-|
|-6---------------|-(6)-----------(6)-8-|
|-5---------------|-(5)-----------(5)-7-|
|-----------------|---------------------|
|-----------------|---------------------|
|-----------------|---------------------|
PM-| PM PM| PM-| PM PM--|
|-------------------|-------------------||
|-------------------|-------------------||
|-------------------|-------------------||
|-------------------|-------------------||
|-------0---0-----0-|-------0---0-------||
|--0--0-0-0-0-0-0-0-|--0--0-0-0-0-0-0-0-||
|
| /
|-(7)---------------|-(7)---------------||
|-(8)---------------|-(8)---------------||
|-(7)---------------|-(7)---------------||
|-------------------|-------------------||
|-------------------|-------------------||
|-------------------|-------------------||
Chorus

A5 C5 G5
|----------|------------|----------|------|
|----------|------------|----------|------|
|----------|------------|----------|------|
|-2--------|-(2)--------|-5--------|------|
|-0--------|-(0)--------|-3--------|-5----|
|----------|------------|----------|-5----|
A5 C5 G5 G5 F5
|----------|------------|-------------------|----------------|
|----------|------------|-------------------|----------------|
|----------|------------|-------------------|----------------|
|-2--------|-(2)--------|-5-----------------|----------------|
|-0--------|-(0)--------|-3---5-(5)---------|---------5--3-0-|
|----------|------------|-----5-(5)--3b3.5--|-(3)-0---5--3-0-|
D5 G5 D5
PM------------------|
|-------------------|-------------------|
|-------------------|-------------------|
|-------------------|-------------------|
|-------------------|-------------------|
|-(0)-1-2-0-2-3-0-3-|-4-0-4-5-(5)-6-7-0-|
|-(0)-1-2-0-2-3-0-3-|-4-0-4-5-(5)-6-7-0-|
G5
PM------------------|
|-------------------|-------------------|
|-------------------|-------------------|
|-------------------|-------------------|
|-------------------|-------------------|
|-(0)-1-2-0-2-3-0-3-|-4-0-4-5-(5)-6-7-0-|
|-(0)-1-2-0-2-3-0-3-|-4-0-4-5-(5)-6-7-0-|
D5 G5 D5
PM------------------|
|-------------------|-------------------|
|-------------------|-------------------|
|-------------------|-------------------|
|-------------------|-------------------|
|-(0)-1-2-0-2-3-0-3-|-4-0-4-5-(5)-6-7-0-|
|-(0)-1-2-0-2-3-0-3-|-4-0-4-5-(5)-6-7-0-|

G5
PM------------------|
|-------------------|-------------------||
|-------------------|-------------------||
|-------------------|-------------------||
|-------------------|-------------------||
|-(0)-1-2-0-2-3-0-3-|-4-0-4-5-(5)-6-7-0-||
|-(0)-1-2-0-2-3-0-3-|-4-0-4-5-(5)-6-7-0-||
2nd Verse
D5
PM
|------------|--------------|--------------------|----------------------|
|------------|--------------|--------------------|----------------------|
|------------|--------------|--------------------|----------------------|
|------------|--------------|--------------------|----------------------|
|-(0)--------|-(0)----------|-(0)----------------|--(0)-------(0)-0-----|
|-(0)--------|-(0)----------|-(0)----------------|--(0)-------(0)-0-0-0-|
|
| Gtr II
|------------|--------------|--------------------|----------------------|
|------------|--------------|--------------------|----------------------|
|------------|-10-----------|--------------------|-------11--(11)-------|
|------------|--------12----|-10---12--12--12-10-|-(10)-----------------|
|------------|--------------|--------------------|----------------------|
|------------|--------------|--------------------|----------------------|
D5
|------------------------|--------------|
|------------------------|--------------|
|------------------------|--------------|
|------------------------|--------------|
|----------0-------------|-(0)----------|
|----------0-------------|-(0)----------|
|
|------------------------|--------------|
|-13-----(13)----(13)----|-10-----------|
|-12b14==(12)r===(12)----|-10-----------|
|------------------------|--------12----|
|------------------------|--------------|
|------------------------|--------------|
|---------------------------|----------||
|---------------------------|----------||
|---------------------------|----------||
|---------------------------|----------||
|-(0)-----------------------|---x-----||
|-(0)-----------------------|----------||
|
| ~~~~~
|---------------------------|----------||
|-13---15--15--15b17==(15)--|-(15)r----||
|---------------------------|----------||
|---------------------------|----------||
|---------------------------|----------||
|---------------------------|----------||
Pre Chorus
D5
PM PM PM| PM-| PM PM| PM| PM PM| PM-| PM PM--|
|-----------------|-------------------|-----------------|-------------------|
|-----------------|-------------------|-----------------|-------------------|
|-----------------|-------------------|-----------------|-------------------|
|-----------------|-------------------|-----------------|-------------------|
|-0---0---0-----0-|-------0---0-----0-|-----0---0-----0-|-------0---0-------|
|-0-0-0-0-0-0-0-0-|--0--0-0-0-0-0-0-0-|-0-0-0-0-0-0-0-0-|--0--0-0-0-0-0-0-0-|
|
|-----------------|-------------------|-----------------|-------------------|
|-----------------|-------------------|-----------------|-------------------|
|-5---------------|-(5)---------5-----|-7---------------|-(7)---------------|
|-5---------------|-(5)-------x-5-----|-7---------------|-(7)---------------|
|-----------------|-----------x-------|-----------------|-------------------|
|-----------------|-------------------|-----------------|-------------------|
D5
PM PM PM| PM-| PM PM| PM-----| PM PM|
|------------------|---------------------------|---------------------------|
|------------------|---------------------------|---------------------------|
|------------------|---------------------------|---------------------------|
|------------------|---------------------------|---------------------------|
|--0---0---0-----0-|--------0-----0----------0-|------------0-----0------0-|
|--0-0-0-0-0-0-0-0-|---0--0-0-0---0--0---0---0-|---0------0-0-0---0--0-0-0-|
|
|------------------|---------------------------|---------------------------|
|------------------|------------------------13-|-(13)-----------(13)-------|
|-10---------------|-(10)-------(10)---(10)-12-|-(12)b14========(12)-------|
|-10---------------|-(10)-------(10)---(10)----|---------------------------|
|------------------|---------------------------|---------------------------|
|------------------|---------------------------|---------------------------|

PM-| PM PM----------|
|-----------------------------------------------------||
|-----------------------------------------------------||
|-----------------------------------------------------||
|-----------------------------------------------------||
|-----------------0-------------0---------------------||
|---0----0--------0----0--------0----0--------0----0--||
|
|-----------------------------------------------------||
|-(13)-(13)-----(13)-(13)-----(13)-(13)-----(13)-(13)-||
|-(12)r(12)b14==(12)r(12)b14==(12)r(12)b14==(12)r(12)-||
|-----------------------------------------------------||
|-----------------------------------------------------||
|-----------------------------------------------------||
Interlude

D5 C5
PM|
|----------------|------------------------------|
|----------------|------------------------------|
|----------------|------------------------------|
|----------------|-------------7-----------7--5-|
|-(0)------------|---(0)-------5-----------5--3-|
|-(0)------------|---(0)---0-0------------------|
|
| 1/
|----------------|------------------------------|
|----------------|----------------13b15==(13)---|
|----------------|------------------------------|
|------------|-()-----------------------|
|--5------(5)----|---(5)------------------------|
|----------------|------------------------------|
D5
|---------------------|---------------------------|
|---------------------|---------------------------|
|---------------------|---------------------------|
|--(5)----------------|--(5)-----(5)--------------|
|--(3)----------------|--(3)-----(3)---0----0-----|
|---------------------|----------------0----0-----|
|
| ~~~~~~~~~~~
|---------------------|---------------------------|
|-(13)r=(13)--(13)----|-(13)----(13)--10-13---10--|
|---------------------|---------------------------|
|---------------------|---------------------------|
|---------------------|---------------------------|
|---------------------|---------------------------|
D5 C5
PM|
|-------------------|------------------------|
|-------------------|------------------------|
|-------------------|------------------------|
|-------------------|-------------7----7---5-|
|-(0)---------------|--(0)--------5----5---3-|
|-(0)---------------|--(0)--0-0--------------|
|
| ~~~~~~~~~~~~~~
|-------------------|------------------------|
|-------------------|------------------------|
|-12b14=====(12)----|-(12)------(12)r-12--11-|
|-------------------|------------------------|
|-------------------|------------------------|
|-------------------|------------------------|
|----------------------|-------------------------------||
|----------------------|-------------------------------||
|----------------------|-------------------------------||
|-(5)------------------|--(5)---------------(5)--(5)---||
|-(3)------------------|--(3)---------------(3)--(3)-0-||
|----------------------|-----------------------------0-||
|
| 1____/0____4
|----------------------|-------------------------------||
|----------------------|-------------------------------||
|-12--11---------------|-------------------------------||
|--------12--(12)--12--|-(12)--(12)--(12)--(12)--------||
|----------------------|-------------------------------||
|----------------------|-------------------------------||
Guitar Solo
D5 G5 D5
PM-------------------------|
|--------------------------|-----------------------|
|--------------------------|-----------------------|
|--------------------------|-----------------------|
|--------------------------|-----------------------|
|-(0)--1--2--0--2--3--0--3-|-4--0--4--5-(5)--6-7-0-|
|-(0)--1--2--0--2--3--0--3-|-4--0--4--5-(5)--6-7-0-|
|
| ~~
|--------------------------|-----------------------|
|--------------12p10----13-|---13-12p10-12--13-----|
|-----12p10----------10----|-----------------------|
|-----------12-------------|-----------------------|
|--------------------------|-----------------------|
|--------------------------|-----------------------|
G5
PM-------------------------------|
|------------------------------|------------------------|
|------------------------------|------------------------|
|------------------------------|------------------------|
|------------------------------|------------------------|
|-(0)--1--2--0--2--3--0--3-----|---4--0-4-5--(5)--6-7-0-|
|-(0)--1--2--0--2--3--0--3-----|---4--0-4-5--(5)--6-7-0-|
|
| ~~~~~~~~~~~~~~~
|-----13p12-10-12p10-----------|------------------------|
|-----13p12-10-12p10-10-13b15==|=(13)-------(13)r-------|
|------------------------------|----------------------0-|
|------------------------------|------------------------|
|------------------------------|------------------------|
|------------------------------|------------------------|
D5 G5 D5
PM---------------------------|
|-------------------------|----------------------|
|-------------------------|----------------------|
|-------------------------|----------------------|
|-------------------------|----------------------|
|-(0)--1--2--0--2--3-0--3-|---4---0-4-5-(5)6-7-0-|
|-(0)--1--2--0--2--3-0--3-|---4---0-4-5-(5)6-7-0-|
|
|-------------------------|----------------------|
|-----13p12p10-12p10s8-10-|-(10)-10p8s7--8p7s5-7-|
|-(0)---------------------|----------------------|
|-------------------------|----------------------|
|-------------------------|----------------------|
|-------------------------|----------------------|
D5 G5 G#5A5

|--------------------------|----------------------||
|--------------------------|----------------------||
|--------------------------|----------------------||
|--------------------------|----------------------||
|-(0)-1-2-0-2-3-0-------3--|--0------5----6--7----||
|-(0)-1-2-0-2-3-0-------3--|--0------5----6--7----||
|
| ~~~~~~~~~~~
|--------------------------|----------------------||
|-(7)-7p5s3-5p3------------|----------------------||
|---------------5-5b7==(5)-|-(5)----(5)r----------||
|--------------------------|----------------------||
|--------------------------|----------------------||
|--------------------------|----------------------||
D5EbE5 F5 F#5 G5 G#A5D5 EbE5 F5 F#5 G5 G#A5

||----------------|------------------|-----------------|-------------------|
||o---------------|------------------|-----------------|-------------------|
||----------------|------------------|-----------------|-------------------|
||----------------|------------------|-----------------|-------------------|
||o-0-1-2--2-3--3-|-4--4-5-(5)-6-7-0-|-(0)-1-2--2-3--3-|-4--4-5-(5)-6-7-0--|
||--0-1-2--2-3--3-|-4--4-5-(5)-6-7-0-|-(0)-1-2--2-3--3-|-4--4-5-(5)-6-7-0--|
D5 EbE5 F5 F#5 G5 G#A5D5 EbE5 F5 F#5 G5 G#A5D5
|-----------------|------------------|-----------------|-------------------||
|-----------------|------------------|-----------------|------------------o||
|-----------------|------------------|-----------------|-------------------||
|-----------------|------------------|-----------------|-------------------||
|-(0)-1-2--2-3--3-|-4--4-5-(5)-6-7-0-|-(0)-1-2--2-3--3-|-4--4-5-(5)-6-7-0-o||
|-(0)-1-2--2-3--3-|-4--4-5-(5)-6-7-0-|-(0)-1-2--2-3--3-|-4--4-5-(5)-6-7-0--||
Chorus
A5
|----------------------|--------------------------------------------|
|----------------------|--------------------------------------------|
|----------------------|--------------------------------------------|
|-2--------------------|---------(2)--------------------------------|
|-0--------------------|---------(0)--------------------------------|
|----------------------|--------------------------------------------|
|
| ~~~~~
|----------------------|--------------------------------------------|
|----------------------|---------------------13b15==(13)-(13)r------|
|------10-12-12--10-12-|-12b13==(12)r(12)-10--------------------12--|
|------10-12-12--10-12-|-12b13==(12)r(12)-10------------------------|
|---12-----------------|--------------------------------------------|
|----------------------|--------------------------------------------|
C5 G5 F5 D5 G5 F5
|---------------------------|---------------------|
|---------------------------|---------------------|
|---------------------------|---------------------|
|---------5-----------------|---------------------|
|---------3-----5--(5)---3--|-(3)--0----5---3-----|
|---------------5--(5)---3--|-(3)--0----5---3--0--|
|
|---------------------------|---------------------|
|-13----(13)---13-(13)------|-13--13---13--10-----|
|-12b14-(12)---12-(12)--10--|----------12--10-----|
|---------------------------|-----12----------12--|
|---------------------------|---------------------|
|---------------------------|---------------------|
Interlude
D5 G5 D5
|---------------------|-------------------|
|---------------------|-------------------|
|---------------------|-------------------|
|---------------------|-------------------|
|---------------------|-------5-(5)-------|
|---0---1-2-0-2-3-0-3-|-4-0-4-5-(5)-6-7-0-|
|
|---------------------|-------------------|
|---------------------|-------------------|
|---------------------|-------------------|
|-(12)---------------|-------------------|
|---------------------|-------------------|
|---------------------|-------------------|
G5
|-------------------|-------------------|
|-------------------|-------------------|
|-------------------|-------------------|
|-------------------|-------------------|
|-------------------|-------5-(5)-------|
|-(0)-1-2-0-2-3-0-3-|-4-0-4-5-(5)-6-7-0-|
|
|-------------------|-------------------|
|-------------------|-------------------|
|-------------------|-------------------|
|-------------------|-------------------|
|-------------------|-----------------0-|
|-------------------|-----------------0-|
D5 G5 D5
|-------------------|-------------------|
|-------------------|-------------------|
|-------------------|-------------------|
|-------------------|-------------------|
|-------------------|-------5-(5)-------|
|-(0)-1-2-0-2-3-0-3-|-4-0-4-5-(5)-6-7-0-|
|
| PM------------------|
|-------------------|-------------------|
|-------------------|-------------------|
|-------------------|-------------------|
|-------------------|-------------------|
|-(0)-1-2-0-2-3-0-3-|-4-0-4-5-(5)-6-7-0-|
|-(0)-1-2-0-2-3-0-3-|-4-0-4-5-(5)-6-7-0-|
G5
|-------------------|-------------------||
|-------------------|-------------------||
|-------------------|-------------------||
|-------------------|-------------------||
|-------------------|-------5-(5)-------||
|-(0)-1-2-0-2-3-0-3-|-4-0-4-5-(5)-6-7-0-||
|
| PM------------------|
|-------------------|-------------------||
|-------------------|-------------------||
|-------------------|-------------------||
|-------------------|-------------------||
|-(0)-1-2-0-2-3-0-3-|-4-0-4-5-(5)-6-7-0-||
|-(0)-1-2-0-2-3-0-3-|-4-0-4-5-(5)-6-7-0-||
Chorus
A5 C5 G5
|----------|------------|----------|-----------------------|
|----------|------------|----------|-----------------------|
|----------|------------|----------|-----------------------|
|-2--------|-(2)--------|-5--------|-----------------------|
|-0--------|-(0)--------|-3--------|-5---------------------|
|----------|------------|----------|-5---------------------|
|
|----------|------------|----------|-----------------------|
|----------|------------|----------|---/10-13--12-10-------|
|----------|------------|----------|-----------------12-10-|
|----------|------------|----------|-----------------------|
|----------|------------|----------|-----------------------|
|----------|------------|----------|-----------------------|
A5
|-------------------|-------------|
|-------------------|-------------|
|-------------------|-------------|
|---2---------------|--(2)--------|
|---0---------------|--(0)--------|
|-------------------|-------------|
|
| ~~~~~~~~~~~~~~~~~~~
|-------------------|-------------|
|-------------------|-------------|
|-(10)--------------|-------------|
|------12---(12)----|-(12)--------|
|-------------------|-------------|
|-------------------|-------------|
C5 G5 G5 F5
|-------------------------------------------|-----------------------|
|-------------------------------------------|-----------------------|
|-------------------------------------------|-----------------------|
|---------5---------------------------------|-----------------------|
|---------3----------------5---5------------|------------5---3--0---|
|--------------------------5---5-----3b3.5--|--(3)--0----5---3--0---|
|
|-------------------------------------------|-----------------------|
|------------13-13------------13-13---------|-----------------------|
|-12b14-(12)-------12b14-(12)-------10------|-(10)------12--10------|
|-------------------------------------------|------12----------12---|
|-------------------------------------------|-----------------------|
|-------------------------------------------|-----------------------|
D5 G5 D5
PM-------------------|
|-------------------|-----------------------|
|-------------------|-----------------------|
|-------------------|-----------------------|
|-------------------|-----------------------|
|-(0)-1-2-0-2-3-0-3-|-4--0--4--5-(5)--6-7-0-|
|-(0)-1-2-0-2-3-0-3-|-4--0--4--5-(5)--6-7-0-|
|
|-------------------|-----------------------|
|-------------------|---13p12-13-10--13-----|
|-------------------|-----------------------|
|-------------------|-----------------------|
|-------------------|-----------------------|
|-------------------|-----------------------|
G5
PM---------------------------------|
|--------------------------------|------------------------|
|--------------------------------|------------------------|
|--------------------------------|------------------------|
|--------------------------------|------------------------|
|-(0)---1--2--0--2--3--0--3------|---4---0-4-5--(5)-6-7-0-|
|-(0)---1--2--0--2--3--0--3------|---4---0-4-5--(5)-6-7-0-|
|
| ~~~~~~~~~~~
|--------------------------------|------------------------|
|---------15----13----12---------|------------------------|
|-----/14----13----12----10b10.5-|-(10)-------------------|
|--------------------------------|------12-----(12)-------|
|--------------------------------|------------------------|
|--------------------------------|------------------------|
D5 G5 D5
PM------------------|
|-------------------|-------------------|
|-------------------|-------------------|
|-------------------|-------------------|
|-------------------|-------------------|
|-(0)-1-2-0-2-3-0-3-|-4-0-4-5-(5)-6-7-0-|
|-(0)-1-2-0-2-3-0-3-|-4-0-4-5-(5)-6-7-0-|
|
|-------------------|-------------------|
|-------------------|-------------------|
|-------------------|-------------------|
|-------------------|-------------------|
|-------------------|-------------------|
|-------------------|-------------------|
G5
PM-------------------------|
|--------------------------|-----------------------|
|--------------------------|-----------------------|
|--------------------------|-----------------------|
|--------------------------|-----------------------|
|-(0)--1--2--0--2--3--0--3-|-4--0--4--5-(5)--6-7-0-|
|-(0)--1--2--0--2--3--0--3-|-4--0--4--5-(5)--6-7-0-|
|
|--------------------------|-----------------------|
|-----------------------13-|---13-12-13s15--15-----|
|-----12-10----12-10-------|---------12s14---------|
|-----12-10----12-10-------|-----------------------|
|-----------12-------12----|-----------------------|
|--------------------------|-----------------------|
C5 G5 F5 D5
|-------------------------|---------------------||
|-------------------------|---------------------||
|-------------------------|---------------------||
|---5---------------------|---------------------||
|---3----5--(5)-----------|------------5---3--0-||
|--------5--(5)---3b3.5---|--(3)--0----5---3--0-||
|
|-------------------------|---------------------||
|-/13---13-(13)-----------|------------------13-||
|-/12---12-(12)--10b10.5--|-(10)------12--10----||
|-------------------------|------12-------------||
|-------------------------|---------------------||
|-------------------------|---------------------||
Outro
G5
|--------------------------|----------------------|
|--------------------------|----------------------|
|--------------------------|----------------------|
|--------------------------|----------------------|
|--(0)--1--2--0--2--3-0--3-|---4---0-4-5-(5)6-7-0-|
|--(0)--1--2--0--2--3-0--3-|---4---0-4-5-(5)6-7-0-|
|
|--------------------------|----------------------|
|-(13)-13p12p10-12p10s8-10-|-(10)-10p8s7--8p7s5-7-|
|--------------------------|----------------------|
|--------------------------|----------------------|
|--------------------------|----------------------|
|--------------------------|----------------------|
D5 G5
|--------------------------|--------------------------|
|--------------------------|--------------------------|
|--------------------------|--------------------------|
|--------------------------|--------------------------|
|-(0)-1-2-0-2-3-0-------3--|--4---0-4-5-----(5)-6-7-0-|
|-(0)-1-2-0-2-3-0-------3--|--4---0-4-5-----(5)-6-7-0-|
|
| ~~~~~~~~~~ ~~~
|--------------------------|--------------------------|
|-(7)-7p5s3-5p3------------|--------------------------|
|---------------5-5b7==(5)-|-(5)r---0---5b7-(5)---0---|
|--------------------------|--------------------------|
|--------------------------|--------------------------|
|--------------------------|--------------------------|
C5 G5 F5
|-------------------------------|--------------------|
|-------------------------------|--------------------|
|-------------------------------|--------------------|
|---------5---------------------|--------------------|
|---------3-----5--(5)----------|------------5---3---|
|---------------5--(5)---3b3.5--|--(3)--0----5---3---|
|
|-------------------------------|--------------------|
|-13----(13)---13-(13)----------|--------------------|
|-12b14-(12)---12-(12)--10------|-(10)------12--10---|
|-------------------------------|------12------------|
|-------------------------------|--------------------|
|-------------------------------|--------------------|
C5 G5 F5
|-------------------------------|-------------------|
|-------------------------------|-------------------|
|-------------------------------|-------------------|
|---------5---------------------|-------------------|
|---------3-----5--(5)----------|------------5---3--|
|---------------5--(5)---3b3.5--|--(3)--0----5---3--|
|
|-------------------------------|-------------------|
|-13----(13)---13-(13)----------|-------------------|
|-12b14-(12)---12-(12)--10------|-(10)------12--10--|
|-------------------------------|------12-----------|
|-------------------------------|-------------------|
|-------------------------------|-------------------|
C5 G5
|--------------------------------|
|--------------------------------|
|--------------------------------|
|---------5----------------------|
|---------3-----5--(5)-----------|
|---------------5--(5)---3b3.5---|
|
|--------------------------------|
|-13b15-(13)---13-(13)-----------|
|-----------------------10-------|
|--------------------------------|
|--------------------------------|
|--------------------------------|
G5 F5 D5
|---------------------|-------------|-----------*|
|---------------------|-------------|-----------*|
|---------------------|-------------|-7--------*|
|---------------------|-------------|-7--------*|
|------------5---3--0-|--(0)--------|-5--------*|
|--(3)--0----5---3--0-|--(0)--------|-----------*|
|
| ~~~~
|---------------------|-------------|-----------*|
|---------------------|-------------|-----------*|
|-(10)------12--10----|-------------|-----------*|
|------12----------12-|-(12)--------|-----------*|
|---------------------|-------------|-----------*|
|---------------------|-------------|-----------*|




Ваше мнение



Капча