Shout At The Devil
Motley Crue

drop D tuning- DGCFAD

make sure to play in drop D, or else it wont sound the same, and then
you'll be emailing me corrections that only sound good in standard tuning.

/ -slide up
- slide down
h -hammer on
^ -use bar

intro- x2, hold then slide
-------------------
-------------------
-----5/-------7/---
-----5/-------7/---
-0-0------0-0------
-------------------

-------------------------------------
-------------------------------------
-----5-------7-------5-----------7-5-
-----5-------7-------5------5--------
-0-0-----0-0----0-0-----5-7---7------
-------------------------------------

-------------------------------------
-------------------------------------
-----5--------7------5-----------7-5-
-----5--------7------5------5------5-
-0-0----0-0-----0-0-----5-7---7------
-------------------------------------

intro lead
-----------------------------
-11~--10~--8~---11~--13~--8~-
-----------------------------
-----------------------------
-----------------------------
-----------------------------

gtr 2
------------------------------------
------------------------------------
-----5------7-------5-----------7-5-
-----5------7-------5------5------5-
-0-0----0-0-----0-0----5-7---7------
------------------------------------

-------------------------------------
-------------------------------------
-----5------7-------5--------------5-
-----5------7-------5------5-------5-
-0-0-----0-0----0-0----5-7---5-0-3---
-------------------------------------

verse -x4 on 4th play this
----------------|----------------------
----------------|----------------------
-7-5-2--5-7-5-2-|-7-5-2--5-7-2-7-7-5-2-
-7-5-2--5-7-5-2-|-7-5-2--5-7-2-7-7-5-2-
-5-3-0--3-5-3-0-|-5-3-0--3-5-0-5-5-3-0-
----------------|----------------------

chorus
-------------------------------------
-------------------------------------
-----5------7-------5------------7-5-
-----5------7-------5-------5------5-
-0-0----0-0-----0-0-----5-7---7------
-------------------------------------

-------------------------------------
-------------------------------------
-----5-------7------5------------7-5-
-----5-------7------5-------5--------
-0-0-----0-0----0-0-----5-7---7------
-------------------------------------

verse -x4
----------------|
----------------|
-7-5-2--5-7-5-2-|
-7-5-2--5-7-5-2-|
-5-3-0--3-5-3-0-|
----------------|

on 4th play this
----------------------------------
------------------------------3---
-7-5-2--5-7-2-2-5-5---5-------0---
-7-5-2--5-7-2-2-5-5---5-----------
-5-3-0--3-5-0-0-3-3-3---3-2-2---2-
----------------------------------

chorus
-------------------------------------
-------------------------------------
-----5------7-------5------------7-5-
-----5------7-------5-------5------5-
-0-0----0-0-----0-0-----5-7---7------
-------------------------------------

------------------------------------
------------------------------------
-----5------7-------5-----------7-5-
-----5------7-------5-------5-------
-0-0----0-0-----0-0-----5-7---7-----
------------------------------------

solo
gtr 2 under the lead
------------------------------
------------------------------
------------------------------
-2-2---2-2---2-2--------------
-2-2---2-2---2-2--------0-2-3-
-0-0---0-0---0-0--0-2-3-------

------------------------------
------------------------------
------------------------------
-2-2---2-2---2-2--------------
-2-2---2-2---2-2----------0-3-
-0-0---0-0---0-0--0-2-3-0-----

gtr 1 ride the bar in both directions
------------|----------------|------------
-8~-7~-5~---|----------------|------------
------------12h15h12h15h12h15h-----12^15^-
------------------------------------------
------------------------------------------
------------------------------------------

gtr 2
--------------------------------|
--------------------------------|
--------------------------------|
-2-2---2-2---2-2----------------|
-2-2---2-2---2-2----------0-2-3-|
-0-0---0-0---0-0---0-2-3--------|

gtr 1
------------------------------------------
-8^---10^---------------------------------
----------12^-2----2^-2^-2^-2^-2^-2^-2-6/-
-------------------------------------2-6/-
-------------------------------------0-4/-
------------------------------------------

gtr 2
-----------------|
-----------------|
-----------------|
-2-2---2-2---2-2-|
-2-2---2-2---2-2-|
-0-0---0-0---0-0-|

verse-x4
(slide from end of solo, into the regular verse)
-|--------------|
-|--------------|
-7/5-2--5-7-5-2-|
-7/5-2--5-7-5-2-|
-5/3-0--3-5-3-0-|
----------------|

on 4th play this
----------------------------------|
------------------------------3---|
-7-5-2--5-7-2-2-5-5---5-------0---|
-7-5-2--5-7-2-2-5-5---5-----------|
-5-3-0--3-5-0-0-3-3-3---3-2-2---2-|
----------------------------------|

-------------------------------------
-------------------------------------
-----5------7-------5------------7-5-
-----5------7-------5-------5------5-
-0-0----0-0-----0-0-----5-7---7------
-------------------------------------

--------------------------------------
--------------------------------------
-----5-------7-------5-----------7-5^-
-----5-------7-------5-------5--------
-0-0-----0-0-----0-0-----5-7---7------
--------------------------------------

--break--

------------------------------------------------
------------------------------------------------
----------7-5~------5-----7-----5-----------7-5-
------5-------------5-----7-----5------5------5-
-5-7---7-------0-0---0-0---0-0---5-7---7-------
------------------------------------------------

---------------------------------------
---------------------------------------
-----5-------7-------5------------7-5^-
-----5-------7-------5-------5---------
-0-0-----0-0-----0-0-----5-7---7-------
---------------------------------------

outro- repeat and fade after 3 times
--------------------------------|
--------------------------------|
--------4/5------------6/7------|
--------4/5------------6/7------|
-0-0-0--2/3--0-0-0-0-0-4/5--0-0-|
--------------------------------|

------------------------------|
------------------------------|

--------4/5---------------7-5-|
--------4/5----------5------5-|
-0-0-0--2/3--0-0-5-7---7------|
------------------------------|

lead over outro -x2, fade halfway through on the 2nd time
-----------------------------
-11~--10~--8~---11~--13~--8~-
-----------------------------
-----------------------------
-----------------------------
-----------------------------

questions email me- [email protected]




Ваше мнение



Капча