drop d tuning- DGCFAD

Tabbed by: Travis Olson
Email: [email protected]

INTRO:

-|---|---------------------------------|--------------------------------|
-|---|---------------------------------|--------------------------------|
-|---|-6-6-6-5-5-5-4-4-4-3-3-3---------|---6-6-6-5-5-5-4-4-4-3-3-3------| x2
-|---|---------------------------------|--------------------------------|
-|---|---------------------------------|--------------------------------|
-|---|---------------------------------|--------------------------------|

-|--------------------------------------|--------------------------------|
-|--------------------------------------|--------------------------------|
-|-6~---6--6--6---4~--------------------|--6~---6--6--6---4~-------------|
-|-6~---6--6--6---2~--2-2-2-------------|--6~---6--6--6---2~--2-2-2------|x2
-|-4~---4--4--4---2~--2-2-2-------------|--4~---4--4--4---2~--2-2-2------|
-|--------------------0-0-0-------------|---------------------0-0-0------|

That all for now!
It is very easy, good luck!




Ваше мнение



Капча