t. See http://www.olga.net/faq/ for more information. #
Date: Tue, 2 Nov 1999 13:33:45 -0800 (PST)
From: Cristian "'Sуcrates'" Franco
Subject: m/motley_crue/red_hot.tab
Red Hot
Mцtley Crьe
Transcribed By Sуcrates
See the "How To Play It" Section first.
Intro: Fig.A Fig.B
D-|---------------------------|------------------------|----------------------|
A-|---------------------------|------------------------|----------------------|
F-|---------------------------|-9----12^11---------11--|-7----12^11--------11-|
C-|--pick-slide---------------|-9----12^11----12---11--|-7----12^11-----12-11-|
G-|-/\/\/\/\/\/\/\/\/\/\/\/\/-|-7----------12-12-------|-5----------12--12----|
D-|---------------------------|------------------------|----------------------|
Begin:
D-|-----|----------------------------|
A-|-----|----------------------------|
F-|-9---|----------------------------|
C-|-9---|----------------------------|
G-|-7---|--one,-two,-three,-four...--|
D-|-----|----------------------------|
_________________________________
Fig.C Verse: | 1.
D-|--------------------------|-------------|----------------------------------|
A-|--------------------------|-------------|----------------------------------|
F-|-------------------7-7-7--|*------------|----------------------------7-7-7*|
C-|-7/9--9-9-9-9-9-9--5-5-5--|*9--9--7-9---|--7--4-5---7/9--9-9-9-9-9-9-5-5-5*|
G-|-5/7--7-7-7-7-7-7---------|-7--7--5-7---|--5------5-5/7--7-7-7-7-7-7-------|
D-|--------------------------|-0-------0---|----------------------------------|
__________________________
|2. Bridge: Fig.D
D-|---------------------------||-------------------------------------------||
A-|---------------------------||-------------------------------------------||
F-|---------------------------||-------------------------------------------||
C-|----7--4-5---7/9--9------7-||--4---7---7/9--9-9-9-9-9-9-9-9-9-9-9-9-9-7-||
G-|----5------5-5/7--7------5-||--3---5---5/7--7-7-7-7-7-7-7-7-7-7-7-7-7-5-||
D-|---------------------------||-------------------------------------------||
Fig.E
D-|---------------------------|------------------------------||
A-|---------------------------|------------------------------||
F-|---------------------------|------------------------------||
C-|-4---4----2-2-2-2-2-2-2-2--|-5--5--5--2-2-2-2-2-2-2-2--2--||
G-|-3---2----0-0-0-0-0-0-0-0--|-3--3--3--0-0-0-0-0-0-0-0--0--||
D-|---------------------------|------------------------------||
Solo: 1+-
D-|----------------------|----------------------|-------------------------|
A-|----------------------|----------------------|-------------------------|
F-|----------------------|----------------------|-------------------------|
C-|--------7---^5---7----|--5-4-----------------|----2--5-4---------------|
G-|----------------------|-------5--5tr7--7--5--|--3--------5--5tr7--7-5--|
D-|----------------------|----------------------|-------------------------|
Div Gtr.1 (The underline "_" slpit the Gtr.1_Gtr.2
at the same string)
D-|-----------------------------------------------------------------------|
A-|-------------------1---------------------------------------------------|
F-|--------0--4--2--4-2-2^4--2-0--2^4--2-0-----0-4---------2--------------|
C-|-----2--2--5--4--5---4^5--4-2--4^5--4-2---2-2-5---1-1_4-4-------2------|
G-|-----3------------------------------------3-------2-------------0------|
D-|-----------------------------------------------------------------------|
Gtr.2
D-|---------------------|-------------------||
A-|---------------------|-------------------||
F-|---------------------|---------------2---||
C-|-2-2-2-2-2-2--5-5-5--|----7^5-7^5-7--2---||
G-|-0-0-0-0-0-0--3-3-3--|--0------------0---||
D-|---------------------|-------------------||
"How To Play It":
Intro:
[Fig.A x 3]
[Fig.B]
[Fig.A x 3]
[Fig.B]
[Fig.A]
[Begin]
[Fig.C x 4]
[Verse]
Bridge:
[Fig.D x 4]
[Fig.E]
Chorus:
[Fig.A x 3]
[Fig.B]
[Fig.A x 3]
[Fig.B]
[Fig.A]
[Begin]
[Verse]
[Bridge]
[Chorus]
[Solo]
[Chorus]
End:
[Fig.C x 8]
=====
"Quedй desfallecido de escudriсar la verdad"
SУCRATES
__________________________________________________




Ваше мнение



Капча