Band:Мцтlеу Crue
Song:Porno star
Album:New Tatto
Intro
G|-----------------------------
D|-----------------------------
A|----3~~---1-1--1-1--3-3--3-3-
E|-1~~---3~~-------------------
Chorus
G|-----------------------------------
D|-----------------------------------
A|------3x16------1-1--1-1--3-3--3-3-
E|-1x16------3x16--------------------
Bridge 1
G|-----------
D|-----------
A|-----------
E|-1-3-3-1-3-
Verse part 1
G|-------------------------
D|-------------------------
A|-----------1-1-1-1-1-1-1-
E|-1-3-3-1-3---------------
Verse part 2
G|-----------
D|-----------
A|------1x16-
E|-3x16------
Bridge 2
G|-------------
D|-------------
A|-3-1-0-------
E|-------3-1-0-
Tabbed By the Iclendic Kaktus




Ваше мнение



Капча