piece of your action
motley crue
drop d tuning- DGCFAD
PM -palm mute
NH -natural harmonic
p -pull off
/ -slide up
-slide down
~ -let ring
x -muted
all sliding is done with a slide
INTRO- PM
d-------------------------------------------------------------------
g-------------------------------------------------------------------
c----------------------------------------2--------------------------
f-2-2-2-2-2-2-2-2--2-2-2-2-2-2-2-2--2--2-2-2-2-2-2--2-2-2-2-2-2-2-2-
a-0-0-0-0-0-0-0-0--0-0-0-0-0-0-0-0--0--0-0-0-0-0-0--0-0-0-0-0-0-0-0-
d-------------------------------------------------------------------
PM PM PM PM PM PM PM PM NH
d-------------------------------------------------------------------------------
g----------------------------------------------------------------------------5-
c-----9-----7--------7--7-------5------------------9-----7-------7--7-----5--5-
f-----7-----5--------5--5-------3---0-3p0----------7-----5-------5--5-----3--5-
a-0-0----0------0-0---------x--------------3---0-0----0-----0-0--------x-------
d------------------------------------------------------------------------------
PM PM PM PM PM PM PM PM NH
d-------------------------------------------------------------------------------
g-------------------------------------------------------------------------------
c-----9-----7-------7--7-----5------------------9-----7------7-7-----5----------
f-----7-----5-------5--5-----3---0-3p0----------7-----5------5-5-----3--0-3p0---
a-0-0----0-----0-0--------x-------------3---0-0-----0----0-0------x-----------3-
d-------------------------------------------------------------------------------
VERSE PM PM
d--------------------------------------------------------
g--------------------------------------------------------
c-4/5-------3/4------2/3---------------------------------
f-4/5----x--3/4------2/3----------------------2--2--2--2-
a---------------------------------------------0--0--0--0-
d-----------------------------------------x--------------
PM PM
d--------------------------------------------------------
g--------------------------------------------------------
c-4/5-------3/4------2/3---------------------------------
f-4/5----x--3/4------2/3----------------------2--2--2--2-
a---------------------------------------------0--0--0--0-
d-----------------------------------------x--------------
PM~~~~~~~~| PM~~~~~~~~| PM~~~~~~~~| PM PM PM
d--------------------------------------------------------------------------
g--------------------------------------------------------------------------
c-4/5------------3/4-------------2/3---------------------------------------
f-4/5------------3/4-------------2/3-------------------2-----2-----2-----2-
a----0-0-0-0-0-0-----0-0-0-0-0-0-----0-0-0-0-0-0----0--0--0--0--0--0--0--0-
d--------------------------------------------------------------------------
PM~~~~~~~~| PM~~~~~~~~~~~~| PM~~~~~~~~~~~~~~~~~~~~~~~~~~~~~~~~|
d-----------------------------------------------------------------------------
g-----------------------------------------------------------------------------
c-4/5---------------3/4-----------------2/3-----------------------------------
f-4/5---------------3/4-----------------2/3-----------------------------------
a------0-0-0-0-0-0--------0-0-0-0-0-0-----------0-0-0-0-x----7-7-7-7-7-7-7-7-
d-----------------------------------------------------------------------------
PM~~~~~~~~~~~~~|
d-------------------------------------------
g-------------------------------------------
c-------------------------------------------
f-6-6-6-6-6-6-6-6---9-9-9-9-9-9-9-9---9-12-
a-7-7-7-7-7-7-7-7---7-7-7-7-7-7-7-7---7-12-
d-------------------------------------------
PM~~~~~~~~~~~~|
d-------------------------------------------
g-------------------------------------------
c-------------------------------------------
f-6-6-6-6-6-6-6-6---9-9-9-9-9-9-9-9---9-12-
a-7-7-7-7-7-7-7-7---7-7-7-7-7-7-7-7---7-12-
d-------------------------------------------
PM PM PM PM PM PM PM PM NH
d----------------------------------------------------------------------
g--------------------------------------------------------------------5-
c-----9-----7------7--7------5---------------9----7------7--7-----5--5-
f-----7-----5------5--5------3--0-3p0--------7----5------5--5-----3--5-
a-0-0----0-----0-0--------x-----------3--0-0----0----0-0--------x------
d----------------------------------------------------------------------
PM PM PM PM PM PM PM PM NH
d------------------------------------------------------------------------------
g------------------------------------------------------------------------------
c-----9-----7------7--7-----5------------------9-----7------7--7----5----------
f-----7-----5------5--5-----3---0-3p0----------7-----5------5-5-----3--0-3p0---
a-0-0----0-----0-0-------x------------3---0-0-----0-----0-0------x-----------3-
d------------------------------------------------------------------------------
solo
PM PM PM PM
d----------------------------------------------------------------------
g----------------------------------------------------------------------
c------9----7------7--7-----5-----------------4/5~-----3/4~-------2/3~-
f------7----5------5--5-----3---0-3p0----------------------------------
a-0-0-----0----0-0-------x------------3--------------------------------
d----------------------------------------------------------------------
d-------------------------------------------------------------
g-------------------------------------------------------------
c--3-3/5--75--75----------------0-----4/5~---5-5/7-7~--73~-
f-------------------7--5-/-7--0------------------------------
a-------------------------------------------------------------
d-------------------------------------------------------------
d---------------------------------------------------------
g---------------------------------------------------------
c--3-3/5--75--7--------0--------------------------------
f-------------------75~-----0--/7---75-----7--7--75----
a--------------------------------------------5----------5-
d---------------------------------------------------------
d-----------------------------------------------------------------
g-----------------------------------------------------------------
c-----------------------------------------------------------------
f-7-7-7-5-/8~--75-------/7--75----7--7--75-----7--7--75---5~-
a--------------------5------------5-------------5--------------5--
d-----------------------------------------------------------------
d----------------------------------------------------------------------------
g----------------------------------------------------------------------------
c-----------------------------------2p0---2p0----3p0-----2p0----3p0----2p0---
f-/7--7p5--7--7-7-7p5--7-7-7p5---8------0------0------0-------0-----0------0-
a--------5-----------5--------5/---------------------------------------------
d----------------------------------------------------------------------------
d--------------------------------------------------------
g--------------------------------------------------------
c-2p0---3p0----2p0----2p0----/5---5/7---710--10/12--12/-
f-----0-----0------3-------0-/5---5/7---710--10/12------
a--------------------------------------------------------
d--------------------------------------------------------
d-17~--17~-17~--17~-17~--17~--17~--17~-17~-17~--17~-xx-
g--------------------------------------------------------
c--------------------------------------------------------
f--------------------------------------------------------
a--------------------------------------------------------
d--------------------------------------------------------
PM~~~~~~~~~~~~~~~~~~~~~~~~~~~~~~~~~~~~~~~~~~~~~~~~~~~~~~~~~~~~~~~~~~~|
d-----------------------------------------------------------------------------
g-----------------------------------------------------------------------------
c-14-14-14-14-14-12---14--14-14-14-12----14--14-14-14-14-14-12--14-14---14/17-
f------------------14-----------------14-----------------------------14-------
a-----------------------------------------------------------------------------
d-----------------------------------------------------------------------------
PM~~~~~~~~~~~~~~~~~~~~~~~~~~~~~~~~~~~~~~~~~~~~~~~~~~~~~~~~~~~~~~~~~|
d-----------------------------------------------------------------------------
g-----------------------------------------------------------------------------
c-14-14-14-14-14-12---14--14-14-14-14-12---14--14-14-14-14-14-12---14--12-12-
f------------------14--------------------14---------------------14------------
a-----------------------------------------------------------------------------
d-----------------------------------------------------------------------------
PM~~~~~~~~~~~~~~~~~~~~~~~~~~~~~~~~~~~~~~~~~~~~~~~~~~~~~~~~~~~~~~~|
d----------------------------------------------------------------------------
g----------------------------------------------------------------------------
c-14-14-14-14-14-12---14--14-14-14-12----14--14-14-14-14-14-12---14-14-14/17-
f------------------14-----------------14-----------------------14------------
a----------------------------------------------------------------------------
d----------------------------------------------------------------------------
PM~~~~~~~~~~~~~~~~~~~~~~~~~~~~~~~~~~~~~~~~~~~~~~~~~~~~~~~~~~~~~~~~~|
d-----------------------------------------------------------------------------
g-----------------------------------------------------------------------------
c-14-14-14-14-14-12---14--14-14-14-14-12---14--14-14-14-14-14-12---14--12-12-
f------------------14-------------------14-----------------------14-----------
a-----------------------------------------------------------------------------
d-----------------------------------------------------------------------------
PM~~~~~~~~~~~~~~~~~~~~~~~~~~~~~~~~~~~~~~~~~~~~~~~~~~~~~~~~~~~~~~~~~~|
d-----------------------------------------------------------------------------
g-----------------------------------------------------------------------------
c-14-14-14-14-14-12---14--14-14-14-12----14--14-14-14-14-14-12---14-14--14/17-
f------------------14-----------------14-----------------------14-------------
a-----------------------------------------------------------------------------
d-----------------------------------------------------------------------------
PM~~~~~~~~~~~~~~~~~~~~~~~~~~~~~~~~~~~~~~~~~~~~~~~~~~~~~~~~~~~~~~~|
d------------------------------------------------------------------
g------------------------------------------------------------------
c-14-14-14-14-14-12----14-14-14-14-14-12----14-14-14-14-14-14-12---
f------------------14-------------------14----------------------14-
a------------------------------------------------------------------
d------------------------------------------------------------------
d-------------------------------------
g-------------------------------------
c--14-14-14-14-14-14-122-/-3-/-4-/-5-
f-----------------------2-/-3-/-4-/-5-
a-------------------------------------
d-------------------------------------
d-----------------------------------------------------------------------
g-----------------------------------------------------------------------
c---2p0----3p0-----2p0-----3p0-----2p0------2p0----3p0----2-2p0---------
f-0-----0-------0-------0-------0-------0--------0------0----------2--2-
a------------------------------------------------------------------0--0-
d-----------------------------------------------------------------------
PM PM PM PM NH
d--------------------------------------
g------------------------------------5-
c-----9-----7-----7--7------5------5---
f-----7-----5-----5--5------3----5-----
a-0-0----0----0-0--------x-------------
d--------------------------------------
OUTRO CHORUS
PM PM PM PM PM PM PM NH
d------------------------------------------------------------------------
g----------------------------------------------------------------------5-
c-----9-----7-------7--7-----5----------------9-----7------7--7-----5--5-
f-----7-----5-------5--5-----3--0-3p0---------7-----5------5--5-----3--5-
a-0-0----0-----0-0--------x-----------3---0-0----0-----0-0-------x-------
d------------------------------------------------------------------------
PM PM PM PM PM PM PM PM NH
d-------------------------------------------------------------------------------
g-------------------------------------------------------------------------------
c-----9----7------7--7-----5------------------9------7-------7--7----5----------
f-----7----5------5--5-----3---0-3p0----------7------5-------5-5-----3--0-3p0---
a-0-0----0----0-0--------x------------3---0-0-----0------0-0------x-----------3-
d-------------------------------------------------------------------------------
PM
d--------------------------------------------------------------
g--------------------------------------------------------------
c--------------------------------------------------------------
f------------------6-6-6-6-6-6-6-6--9-9-9-9-9-9-9-9--9-----x-x-
a-7-7-7-7-7-7-7-7--7-7-7-7-7-7-7-7--7-7-7-7-7-7-7-7--7---------
d-0-0-0-0-0-0-0-0--0-0-0-0-0-0-0-0--0-0-0-0-0-0-0-0--0---------
d-------------------------------------------------------------
g-------------------------------------------------------------
c-2p0----3p0----2p0----3p0----2p0----2p0----3p0------2--------
f-----0------0------0-------0------0------0-------0------2--2-
a--------------------------------------------------------0--0-
d-------------------------------------------------------------
questions email me- [email protected]




Ваше мнение



Капча