on with the show
motley crue

drop D tuning

h- hammer on
p- pull off
nh- natural harmonic
^- use bar
~- let ring
- slide up
/- slide down
PM- palm mute

intro
---------------------------------------------------------------------
---------------------------------------------------------------------
-------------------13h14p13---------------------------14p13----------
-----------14----------------14---------------14-------------14------
-------14------14----------------14-------14------14-------------14--
--12----------------------------------11-----------------------------

----------------------------------------------------------------
----------------------------------------------------------------
-------------------9----------------------------8h9p8-----------
-----------11---------11------11----------9------------9--------
-------11------11---------11-----------9-----9------------9-----
----9-------------------------------7---------------------------

----------------------------------------
--------------------------------2-------
-----------6h7p6------------------2---2-
------7----------7--------4---------4---
----7---7----------7----4---4-----------
--5-------------------2-----------------

----------------------------------------------------
----------------------------------------------------
-------------8h9p8----------------------8h9p8-------
-------9------------9-------------9------------9----
----9-----9------------9-------9-----9------------9-
--7-------------------------7-----------------------

verse
--------------------------------------------------------
--------------------------------------------------------
--------------------13h14p13---------------14p13--------
--------14------14-------------------14-----------14----
-----14----14---------------------14----14-----------14-
--12---------------------------11-----------------------

-------------------------------------------------------------------
-------------------------------------------------------------------
--------------9----------------------8h9p8---------------6h7p6-----
-------11--------11----11--------9---------9---------7---------7---
----11----11--------11---------9---9---------9-----7---7---------7-
--9-------------------------7--------------------5-----------------

----------------------------------------
-----------2----------------------------
-------------2---2------------8h9p8-----
------4--------4---------9----------9---
----4---4--------------9---9----------9-
--2------------------7------------------

------------------------------------------------
------------------------------------------------
----------8h9p8------------------13h14p13-------
------9---------9----------14-------------14----
----9---9--------9------14----14-------------14-
--7------------------12-------------------------

------------------------------------------------
------------------------------------------------
--------------14p13-------------------9---------
--------14----------14----------11------11---11-
-----14----14----------14----11----11------11---
--11-----------------------9--------------------

--------------------------------------
--------------------------------------
----------8h9p8-----------------------
------9---------9-------7-----4-----9-
----9---9--------9------7-----4-----9-
--7---------------------5-----2-----7-

----------------------------------------------
----------------------------------------------
-------------------------------13h14p13-------
-------------------------14-------------14----
--2------14~~--------14----14-------------14-
-------------------12-------------------------

------------------------------------------------
------------------------------------------------
--------------14p13-------------------9---------
--------14----------14----------11------11---11-
-----14----14----------14----11----11------11---
--11-----------------------9--------------------

----------------------------------------------------------
----------------------------------------------------------
----------8h9p8-------------------------------------------
------9---------9-------7---------------------------------
----9---9---------9-----7-------------2------2------14~~-
--7---------------------5--2--0--2--5---5--2--------------

chorus PM-----------| PM-----------| PM---------|
-------------------------------------------------------------------------------
-------------------------------------------------------------------------------
-------------------------------------------------------------------------------
--14--------14--14--14--14----13------13--13--13--13--------11----11--11-11-11-
--14--------14--14--14--14----11------11--11--11--11--------11----11--11-11-11-
--12--------12--12--12--12----11------11--11--11--11---------9-----9---9-9--9--

PM-----------|
------------------------------------------------------------------------------
------------------------------------------------------------------------------
------------------------------------------------------------------------------
--9--------9--9--9--9--9----7-------------------------------------------------
--9--------9--9--9--9--9----7-----------------2---------2-------14^--14^--14-
--7--------7--7--7--7--7----5------2--0--2--5---5--2--------------------------

PM-----------| PM-----------|
-------------------------------------------------------
-------------------------------------------------------
-------------------------------------------------------
--13--------13--13--13--13----11--------11--11--11--11-
--11--------11--11--11--11----11--------11--11--11--11-
--11--------11--11--11--11----9---------9---9---9---9--

PM-----------|
-----------------------------------------------------------------------------
-----------------------------------------------------------------------------
-----------------------------------------------------------------------------
---9-----9--9--9--9--9----7--------------------------------------------------
---9-----9--9--9--9--9----7-------------------2--------2^------2--------14^-
---7-----7--7--7--7--7----5--------2--0--2--5---5--2-------------------------

solo nh
----------------------------------------------------------------------------
----------------------------------------------------------------------------
--11^--11p9--11--11p9------------------------------------------------------
-----------------------11^--11--10--8---------------------------------------
---------------------------------------11--10----8--7--5--7^--7p5-----------
-------------------------------------------------------------------7~~--5~~-

-9h12p9h12p9-------------------------------------------------------------------
---------------9h12p9h12------------------------------------------------------
---------------------------9h11p9h11p9----------------------------------------
----------------------------------------9h11p9h11p9---------------------------
----------------------------------------------------9h11p9h11p9---9^--9p7--9^-
-------------------------------------------------------------------------------

-----------------------------------------------
-----------------------------------------------
--4h6p4------h6p4--6h8p6h8p6--8h10p8h10p8--11^-
-----------------------------------------------
-----------------------------------------------
-----------------------------------------------

verse
-------------------------------------------------------------------------
-------------------------------------------------------------------------
--------------13h14p13-------------------14p13------------------9--------
--------14-------------14----------14-----------14---------11-----11--11-
-----14----14-------------14-----14---14-----------14----11--11-----11---
--12--------------------------11-----------------------9-----------------

---------------------------
---------------------------
----------8h9p8------------
------9---------9--------7-
----9---9---------9----7---
--7------------------5-----

--------------------------------------------------------------
--------------------------------------------------------------
------------------------------------------------14h14p13------
--4--------9------------------------------14-------------14---
--4--------9---------2------14~~~------14--14-------------14-
--2--------7--------------------------12----------------------

----------------------------------------------
----------------------------------------------
---------------14p13-----------------9--------
---------14----------14---------11-----11--11-
------14----14----------14----11--11-----11---
---11-----------------------9-----------------

--------------------------------------------------------------------------------
--------------------------------------------------------------------------------
-----------8h9p8----------------------------------------------------------------
------9----------9------7-------4------9----------------------------------------
----9---9----------9----7-------4------9--------------2--------2----------14~~-
--7---------------------5-------2------7---2--0--2--5---5--2--------------------

chorus PM-----------| PM-----------|
--------------------------------------------------------
--------------------------------------------------------
--------------------------------------------------------
---14--------14--14--14--14----13--------13--13--13--13-
---14--------14--14--14--14----11--------11--11--11--11-
---12--------12--12--12--12----11--------11--11--11--11-

PM-----------| PM-----------|
-------------------------------------------------------------------------------
-------------------------------------------------------------------------------
-------------------------------------------------------------------------------
--11------11--11--11--11----9--------9--9--9--9--9----7------------------------
--11------11--11--11--11----9--------9--9--9--9--9----7----------------2-------
--9-------9---9---9---9-----7--------7--7--7--7--7----5-----2--0--2--5----5--2-

-------------------------
-------------------------
-------------------------
-------------------------
--2^--2^---2------14~~~-
-------------------------

chorus PM-----------| PM-----------| PM-----------|
--------------------------------------------------------------------------------
--------------------------------------------------------------------------------
--------------------------------------------------------------------------------
--14-----14--14--14--14----13--------13--13--13--13----11--------11--11--11--11-
--14-----14--14--14--14----11--------11--11--11--11----11--------11--11--11--11-
--12-----12--12--12--12----11--------11--11--11--11----9---------9---9----9---9-

PM-----------|
--------------------------------------------------------------------------
--------------------------------------------------------------------------
--------------------------------------------------------------------------
--9--------9--9--9--9--9----7---------------------------------------------
--9--------9--9--9--9--9----7----------------2--------2^--2^--------14~~-
--7--------7--7--7--7--7----5-----2--0--2--5---5--2-----------------------

----------------------------------------------------
----------------------------------------------------
----------------------------------------------------
--------------6-------------------------------------
--7-----7--9-----6----6--7--9----4----4h6p4-----2~~-
----------------------------------------------------

--9h12--9h12p9h12p9--------------------------------------------------
--------------------9h12p9h12----------------------------------------
-------------------------------9h11p9h11p9---------------------------
--------------------------------------------9h11p9h11p9--------------
---------------------------------------------------------9h11p9h11p9-
---------------------------------------------------------------------

-----------------------------------------------------------------------
-----------------------------------------------------------------------
-----------------4h6p4h6p4--6h8p6h8p6--8h10p8h10p8--11^----------------
------------------------------------------------------------11--10-----
--9^--9p7--9^---------------------------------------------------------
-----------------------------------------------------------------------
nh
--------------------------------------------------9h12p9h12p9----------
---------------------------------------------------------------9h12----
-----------------------------------------------------------------------
---8-------------------------------------------------------------------
------11--10-----8--7--5--7--7p5--------------------------------------
-----------------------------------7~~~--5~~~--------------------------

-----------------------------------------------------------------------
---p9h12---------------------------------------------------------------
----------9h11p9h11p9--------------------------------------------------
-----------------------9h11p9h11p9-------------------------------------
------------------------------------9h11p9h11p9-----9^--9p7--9^-------
-----------------------------------------------------------------------

------------------------------------------
------------------------------------------
---4h6p4h6p4--6h8p6h8p6--8h10p8h10p8--11^-
------------------------------------------
------------------------------------------
------------------------------------------

verse
---------------------------------------------------------------------
---------------------------------------------------------------------
-----------13h14p13-------------------14p13-----------------9--------
------14------------14----------14----------14--------11------11--11-
----14--14------------14-----14----14----------14---11---11-----11---
--12----------------------11-----------------------9-----------------

-------------------------------------------
-------------------------------------------
-------------8h9p8---------------6h7p6-----
--------9----------9--------7----------7---
-----9-----9---------9----7---7----------7-
--7---------------------5------------------

---------------------------------------
-----------2----------------------------
-------------2---2------------8h9p8-----
------4--------4---------9----------9---
----4---4--------------9---9----------9-
--2------------------7------------------

------------------------------------------------
------------------------------------------------
-----------8h9p8-----------------13h14p13-------
------9----------9---------14-------------14----
----9---9----------9----14----14-------------14-
--7-------------------12------------------------

-------------------------------------------------
-------------------------------------------------
---------------14p13--------------------9--------
--------14-----------14----------11-------11--11-
-----14----14-----------14----11----11------11---
--11------------------------9--------------------

---------------------------------------------
---------------------------------------------
-----------8h9p8-----------------------------
------9----------9------7--------4---------9-
----9---9---------9-----7--------4---------7-
--7---------------------5--------2---------7-

------------------------------
------------------------------
------------------------------
------------------------------
--2^--2------14^--14^--14~~~-
------------------------------

chorus PM-----------| PM-----------|
--------------------------------------------------------
--------------------------------------------------------
--------------------------------------------------------
---14--------14--14--14--14----13--------13--13--13--13-
---14--------14--14--14--14----11--------11--11--11--11-
---12--------12--12--12--12----11--------11--11--11--11-

PM-----------| PM---------|
----------------------------------------------------------------------------
----------------------------------------------------------------------------
----------------------------------------------------------------------------
--11------11--11--11--11----9--------9--9--9--9----7------------------------
--11------11--11--11--11----9--------9--9--9--9----7-----------------2------
--9--------9--9---9---9-----7--------7--7--7--7----5------2--0--2--5---5--2-

PM-----------|
--------------------------------------------------------
--------------------------------------------------------
--------------------------------------------------------
-------------------------------14--------14--14--14--14-
--2^--2^--2---14^--14^--14----14--------14--14--14--14-
-------------------------------12--------12--12--12--12-

PM-----------| PM-----------|
-------------------------------------------------------
-------------------------------------------------------
-------------------------------------------------------
--13--------13--13--13--13----11--------11--11--11--11-
--11--------11--11--11--11----11--------11--11--11--11-
--11--------11--11--11--11----9---------9---9---9---9--

PM-----------|
------------------------------------------------------
------------------------------------------------------
------------------------------------------------------
--9--------9--9--9--9--9----7-------------------------
--9--------9--9--9--9--9----7-----------------2-------
--7--------7--7--7--7--7----5-----2--0--2--5-----5--2-

PM-----------|
--------------------------------------------------------
--------------------------------------------------------
--------------------------------------------------------
-------------------------------14--------14--14--14--14-
--2^--2^--2---14^--14^--14----14--------14--14--14--14-
-------------------------------12--------12--12--12--12-

PM-----------| PM-----------| PM-----------|
-----------------------------------------------------------------------------
-----------------------------------------------------------------------------
-----------------------------------------------------------------------------
--13-------13--13--13--13----11--------11--11--11--11----9--------9--9--9--9-
--11-------11--11--11--11----11--------11--11--11--11----9--------9--9--9--9-
--11-------11--11--11--11----9---------9---9---9---9-----7--------7--7--7--7-

--------------------------------------------------------
--------------------------------------------------------
--------------------------------------------------------
--7-----------------------------------------------------
--7----------------2----------2^--2^--2---14^--14^--14-
--5-----2--0--2--5----5--2------------------------------

PM-----------| PM-----------|
-------------------------------------------------------
-------------------------------------------------------
-------------------------------------------------------
--14--------14--14--14--14----13--------13--13--13--13-
--14--------14--14--14--14----11--------11--11--11--13-
--12--------12--12--12--12----11--------11--11--11--11-

PM-----------| PM-----------|
-------------------------------------------------------
-------------------------------------------------------
-------------------------------------------------------
--11--------11--11--11--11----9--------9--9--9--9----7-
--11--------11--11--11--11----9--------9--9--9--9----7-
--9---------9---9---9---9-----7--------7--7--7--7----5-

------------------------------------------------------
------------------------------------------------------
------------------------------------------------------
------------------------9--------9---------9--------9-
-------------2----------9--------9---------9--------9-
--2--0--2--5---5--2-----7--------7---------7--------7-

-------------------------------------------
-------------------------------------------
-------------------------------------------
--9--------9----------14-------------14----
--9--------9----------14-------------14---
--7--------7----------12-------------12---

questions email me- [email protected]




Ваше мнение



Капча