louder than hell
motley crue
drop D tuning- DGCFAD
PM- palm mute
/- slide up
- slide down
h- hammer on
p- pull off
ah- artificial harmonics
~- let ring
b- bend
(#)- let ring
/- dive with bar
intro
PM PM PM PM PM PM
d---------------------------------------------
g---------------------------------------------
c--2-----5-------7----5-------2-----5------0-
f--2-----5-------7----5-------2-----5------0-
a--0--0-----0-0-----0---0--0--0--0----0--0---
d---------------------------------------------
PM PM PM PM PM PM ah
d-----------------------------------------------------
g-----------------------------------------------------
c--2-----5------7----5-------2-----5------0--7b-(7)-5-
f--2-----5------7----5-------2-----5------0-----------
a--0--0-----0-0----0---0--0--0--0----0--0-------------
d-----------------------------------------------------
PM PM PM PM PM PM
d-------------------------------------------------
g-------------------------------------------------
c--2-----5--------7-----5--------2-----5--------0-
f--2-----5--------7-----5--------2-----5--------0-
a--0--0-----0--0-----0-----0--0--0--0-----0--0----
d-------------------------------------------------
d-------------------------------------------
g-------------------------------------------
c-------------------------------------------
f--7~~~~-------------------------(7)--------
a--------------------------------------0-/-
d-------------------------------------------
verse
PM PM PM PM PM PM PM
d------------------------------------------------------------------------------
g------------------------------------------------------------------------------
c----2-------5--------7-----------5--------2-----------5--------4--------------
f----2-------5--------7-----------5--------2-----------5--------5---------5--6-
a-0----0--0-----0--0-----0-0-0-0-----0--0-----0-0-0-0-----0--0-----0-0-0--5--6-
d-------------------------------------------------------------------------3--4-
PM PM PM PM PM PM PM
d-------------------------------------------------------------------------------
g-------------------------------------------------------------------------------
c----2--------5--------7-----------5--------2-----------5--------4--------------
f----2--------5--------7-----------5--------2-----------5--------5---------5--6-
a-0-----0--0-----0--0-----0-0-0-0-----0--0-----0-0-0-0-----0--0-----0-0-0--5--6-
d--------------------------------------------------------------------------3--4-
PM PM PM PM PM PM PM
d------------------------------------------------------------------------------
g------------------------------------------------------------------------------
c---2--------5--------7-----------5--------2-----------5--------4--------------
f---2--------5--------7-----------5--------2-----------5--------5---------5--6-
a-0----0--0-----0--0-----0-0-0-0-----0--0-----0-0-0-0-----0--0-----0-0-0--5--6-
d-------------------------------------------------------------------------3--4-
PM PM PM PM PM PM PM
d------------------------------------------------------------------------------
g------------------------------------------------------------------------------
c----2-------5--------7-----------5--------2-----------5--------4--------------
f----2-------5--------7-----------5--------2-----------5--------5---------5--6-
a-0----0--0-----0--0-----0-0-0-0-----0--0-----0-0-0-0-----0--0-----0-0-0--5--6-
d-------------------------------------------------------------------------3--4-
pre chorus
d-----------------------------------------------------------
g-----------------------------------------------------------
c----------------5~~---------------------------5~~----------
f--7~~----3~~-----------5---5-5----7~~----3~~---------------
a-----------------------5---5-5-----------------------------
d---------------------3-3-3-3-3-----------------------/17--
gtr 2
d---------------------------------------------------------
g----------------5~~----3~~------------------3~~----------
c--5~~----2~~------------------5~~----2~~-----------------
f---------------------------------------------------------
a---------------------------------------------------/17--
d---------------------------------------------------------
chours
d-----------------------------------------------------------------------------
g-----------------------------------------------------------------------------
c--2-2-----5--7/-8-7-p5--7p5--2-2-----5--------5--2-2-----5--7/-8-7-p5--7p5-
f--2-2-----5--7/-8-7-p5--7p5--2-2-----5-----5--5--2-2-----5--7/-8-7-p5--7p5-
a--0-0--0----------------------0-0--0--------5--3--0-0--0---------------------
d-----------------------------------------3--3--------------------------------
d--------------
g--------------
c--2-2--2-2--2-
f--2-2--2-2--2-
a--0-0--0-0--0-
d--------------
intro again
PM PM PM PM PM PM
d--------------------------------------------
g--------------------------------------------
c--2-----5-------7----5-------2-----5------0-
f--2-----5-------7----5-------2-----5------0-
a--0--0-----0-0-----0---0--0--0--0----0--0---
d--------------------------------------------
PM PM PM PM PM PM ah
d-----------------------------------------------------
g-----------------------------------------------------
c--2-----5------7----5-------2-----5------0--7b-(7)-5-
f--2-----5------7----5-------2-----5------0-----------
a--0--0-----0-0----0---0--0--0--0----0--0-------------
d-----------------------------------------------------
PM PM PM PM PM PM
d-------------------------------------------------
g-------------------------------------------------
c--2-----5--------7-----5--------2-----5--------0-
f--2-----5--------7-----5--------2-----5--------0-
a--0--0-----0--0-----0-----0--0--0--0-----0--0----
d-------------------------------------------------
d-------------------------------------------
g-------------------------------------------
c-------------------------------------------
f--7~~~~-------------------------(7)--------
a--------------------------------------0-/-
d-------------------------------------------
verse
PM PM PM PM PM PM PM
d------------------------------------------------------------------------------
g------------------------------------------------------------------------------
c----2-------5--------7-----------5--------2-----------5--------4--------------
f----2-------5--------7-----------5--------2-----------5--------5---------5--6-
a-0----0--0-----0--0-----0-0-0-0-----0--0-----0-0-0-0-----0--0-----0-0-0--5--6-
d-------------------------------------------------------------------------3--4-
PM PM PM PM PM PM PM
d------------------------------------------------------------------------------
g------------------------------------------------------------------------------
c----2-------5--------7-----------5--------2-----------5--------4--------------
f----2-------5--------7-----------5--------2-----------5--------5---------5--6-
a-0----0--0-----0--0-----0-0-0-0-----0--0-----0-0-0-0-----0--0-----0-0-0--5--6-
d-------------------------------------------------------------------------3--4-
PM PM PM PM PM PM PM
d------------------------------------------------------------------------------
g------------------------------------------------------------------------------
c----2-------5--------7-----------5--------2-----------5--------4--------------
f----2-------5--------7-----------5--------2-----------5--------5---------5--6-
a-0----0--0-----0--0-----0-0-0-0-----0--0-----0-0-0-0-----0--0-----0-0-0--5--6-
d-------------------------------------------------------------------------3--4-
PM PM PM PM PM PM PM
d------------------------------------------------------------------------------
g------------------------------------------------------------------------------
c----2-------5--------7-----------5--------2-----------5--------4--------------
f----2-------5--------7-----------5--------2-----------5--------5---------5--6-
a-0----0--0-----0--0-----0-0-0-0-----0--0-----0-0-0-0-----0--0-----0-0-0--5--6-
d-------------------------------------------------------------------------3--4-
pre chorus
d-----------------------------------------------------------
g-----------------------------------------------------------
c----------------5~~---------------------------5~~----------
f--7~~----3~~-----------5---5-5----7~~----3~~---------------
a-----------------------5---5-5-----------------------------
d---------------------3-3-3-3-3-----------------------/17--
gtr 2
d---------------------------------------------------------
g----------------5~~----3~~------------------3~~----------
c--5~~----2~~------------------5~~----2~~-----------------
f---------------------------------------------------------
a---------------------------------------------------/17--
d---------------------------------------------------------
solo
d-------17-19-20--19-20p17----17-----17---------------------------------------
g--20b---------------------20----20b----20p17------------------15-------------
c----------------------------------------------19b~---14-16-17----17-16-17p16-
f-----------------------------------------------------------------------------
a-----------------------------------------------------------------------------
d-----------------------------------------------------------------------------
d-------------------20-19-20-22-20-22-22b-/-
g--------------------------------------------
c--17-16h17p16-14~---------------------------
f--------------------------------------------
a--------------------------------------------
d--------------------------------------------
outro chorus
d------------------------------------------------------------------------------
g------------------------------------------------------------------------------
c-2-2-----5--7/-8-7-p5--7p5----2-2-----5--------5--2-2-----5--7/-8-7-p5--7p5-
f-2-2-----5--7/-8-7-p5--7p5----2-2-----5-----5--5--2-2-----5--7/-8-7-p5--7p5-
a-0-0--0------------------------0-0--0--------5--3--0-0--0---------------------
d------------------------------------------3--3--------------------------------
d-------------------------------------------------------------------------
g-------------------------------------------------------------------------
c--2-2-----5--------5----2-2-----5--7/-8-7-p5--7p5----2-2-----5--------5-
f--2-2-----5-----5--5----2-2-----5--7/-8-7-p5--7p5----2-2-----5-----5--5-
a--0-0--0--------5--3----0-0--0------------------------0-0--0--------5--3-
d-------------3--3------------------------------------------------3--3----
gtr 2
d---------------------------------
g---------------------------------
c------------------7b-(7)-5-------
f----------------------------7~~--
a---------------------------------
d---------------------------------
d----------------------------------------------------------------
g----------------------------------------------------------------
c--2-2-----5--7/-8-7-p5--7p5--2-2--2-2--2--7/-8-7-p5--7p5--2-2-
f--2-2-----5--7/-8-7-p5--7p5--2-2--2-2--2--7/-8-7-p5--7p5--2-2-
a--0-0--0----------------------0-0--0-0--0-------------------0-0-
d----------------------------------------------------------------
questions email me- [email protected]




Ваше мнение



Капча