#----------------------------------PLEASE NOTE---------------------------------#
#This file is the author's own work and represents their interpretation of the #
#song. You may only use this file for private study, scholarship, or research. #
#------------------------------------------------------------------------------#
#
From [email protected] Sun May 4 10:48:16 1997
Date: Tue, 18 Mar 1997 14:31:42 -0600
From: Jason Perez
To: [email protected]
Subject: Motley Crue Looks That Kill
LOOKS THAT KILL
Motley Crue
Decade of Decadence
Main Riff
D|-----------------|-----------------|-----------------|-----------------|
A|-----------------|-----------------|-----------------|-----------------|
F|-----9-----9-----|-7-----7-----76-|-----9-----9-----|-7-----7-----76-|
C|-----7-----7-----|-5-----5-----54-|-----7-----7-----|-5-----5-----54-|
G|-0-0---0-0---0-0-|---0-0---0-0-----|-0-0---0-0---0-0-|---0-0---0-0-----|
D|-----------------|-----------------|-----------------|-----------------|
D|-----------------|-----------------|-----------------|-----------------|
A|-----------------|-----------------|-----------------|-----------------|
F|-----9-----9-----|-7-----7-----76-|-----9-----9-----|-7-----7-----76-|
C|-----7-----7-----|-5-----5-----54-|-----7-----7-----|-5-----5-----54-|
G|-0-0---0-0---0-0-|---0-0---0-0-----|-0-0---0-0---0-0-|---0-0---0-0-----|
D|-----------------|-----------------|-----------------|-----------------|
|
| vib.
D|-----------------|-----------------|-22b(24)~~~~~~~~~|-(24)~~~~~~~~~~~~|
A|-----------------|-----------------|-----------------|-----------------|
F|-----------------|-----------------|-----------------|-----------------|
C|-2---------------|(2)--------------|-----------------|-----------------|
G|-0---------------|(0)--------------|-----------------|-----------------|
D|-----------------|-----------------|-----------------|-----------------|
w/bar
Before the Chorus -.5 -.5 -.5 -.5 -.5 -.5 -.5
D|-----------------|-----------------|---------------------------------|
A|-----------------|-----------------|---/--/--/--|-/--/--/--/--|
F|-----9-----9-----|-7-----7-----76-|-5-(5)-(5)-(5)-|-(5)-(5)-(5)-(5)-|
C|-----7-----7-----|-5-----5-----54-|-3-(3)-(3)-(3)-|-(3)-(3)-(3)-(3)-|
G|-0-0---0-0---0-0-|---0-0---0-0-----|---------------|-----------------|
D|-----------------|-----------------|---------------|-----------------|
Chorus
D|-------------|--------|-----------|-----------|-------------------|
A|-1-1--1-1----|----5-6-|-(6)---6-7-|-(7)---7-8-|-(8)-6-6-6-6-6-6---|
F|-0-0--0-0----|----5-5-|-(5)---5-5-|-(5)---5-5-|-(5)-5-5-5-5-5-5---|
C|-3-3--3-3--2-|----2-3-|-(3)---3-4-|-(4)---4-5-|-(5)-3-3-3-3-3-3-0-|
G|-------------|-0------|-----0-----|-----0-----|-------------------|
D|-------------|--------|-----------|-----------|-------------------|
D|---------|-----------|-----------|-------------------|
A|-----5-6-|-(6)---6-7-|-(7)---7-8-|-(8)-6-6-6-6-6-6---|
F|-----5-5-|-(5)---5-5-|-(5)---5-5-|-(5)-5-5-5-5-5-5---|
C|-2---2-3-|-(3)---3-4-|-(4)---4-5-|-(5)-3-3-3-3-3-3-0-|
G|---0-----|-----0-----|-----0-----|-------------------|
D|---------|-----------|-----------|-------------------|

Bridge
D|-----------------|---------------|-------------|
A|-10--9----13--12-|-8--7----10--9-|-6--5---8--7-|
F|-9---9--12----12-|-8--7--10----9-|-5--5--7---7-|
C|-7---6--12----9--|-5--4--10----6-|-3--2--7---4-|
G|--------10-------|-------8-------|-------5-----|
D|-----------------|---------------|-------------|

Solo
D|-----------------|------------------------|
A|-----------------|------------------------|
F|-7-7-7-7-7-7-7-7-|-7--7--7--7--7--7--7--7-|
C|-5-5-5-5-5-5-5-5-|-5--5--5--5--5--5--5--5-|
G|-----------------|------------------------|
D|-----------------|------------------------|
|
|
D|-----------------|------------------------|
A|-----------------|-----6-5-8-5--8(10)r8p5-|
F|-----------------|-5-4--------------------|
C|-------------6-7-|------------------------|
G|---------8-7-----|------------------------|
D|-----------------|------------------------|

D|-----------------------------------------|---5------------------------|
A|-8p5h8p5-5h8p5h8p5h8p5h8p5h8p5h8p5-8b(10)|(8)--8p5---5----------------|
F|-----------------------------------------|---------7---7-5-7(9)r(7)p5-|
C|-----------------------------------------|----------------------------|
G|-----------------------------------------|----------------------------|
D|-----------------------------------------|----------------------------|

p.h. p.h. p.h. p.h.
D|------------------------------|-----------|------------------|
A|------------------------------|-----------|------------------|
F|-7(9)r(7)p5-7(9)r(7)p5--------|-----------|-8-7-8-7-5---7b(9)|
C|-----------------------7------|-----------|-----------7------|
G|-------------------------5b(7)|(5)-5--5p4-|------------------|
D|------------------------------|-----------|------------------|

D|------------------------------|-----------------------|-------------|----|
A|------------------------------|-----------------------|-6-----------|(6)-|
F|----------9---------9---------|-7--------7--------76-|-5-----------|(5)-|
C|----------7---------7---------|-5--------5--------54-|-3-----------|(3)-|
G|---0---0-----0---0-----0---0--|----0--0-----0--0------|-------------|----|
D|------------------------------|-----------------------|-------------|----|
|
|
D|----5-------------------------|-----------------------|-------------|----|
A|------8p5---5-----------------|-----------------------|-------------|----|
F|(7)-------7---8-7-5-7-7-5-----|-----------------------|-------------|----|
C|--------------------------7-5-|-5---------------------|-------------|----|
G|------------------------------|---7-6-53---------5---|gradual-bend-|----|
C|------------------------------|-----------5p3-5-5---5-|-5b(8)-------|(5)-|
From [email protected] Thu May 15 17:03:55 1997
Date: Fri, 02 May 1997 12:12:25 -0500
From: Jason Perez
To: [email protected]
Subject: Motley Crue Looks That Kill
LOOKS THAT KILL
Motley Crue
Decade of Decadence
Main Riff
D|-----------------|-----------------|-----------------|-----------------|
A|-----------------|-----------------|-----------------|-----------------|
F|-----9-----9-----|-7-----7-----76-|-----9-----9-----|-7-----7-----76-|
C|-----7-----7-----|-5-----5-----54-|-----7-----7-----|-5-----5-----54-|
G|-0-0---0-0---0-0-|---0-0---0-0-----|-0-0---0-0---0-0-|---0-0---0-0-----|
D|-----------------|-----------------|-----------------|-----------------|
D|-----------------|-----------------|-----------------|-----------------|
A|-----------------|-----------------|-----------------|-----------------|
F|-----9-----9-----|-7-----7-----76-|-----9-----9-----|-7-----7-----76-|
C|-----7-----7-----|-5-----5-----54-|-----7-----7-----|-5-----5-----54-|
G|-0-0---0-0---0-0-|---0-0---0-0-----|-0-0---0-0---0-0-|---0-0---0-0-----|
D|-----------------|-----------------|-----------------|-----------------|
|
| vib.
D|-----------------|-----------------|-22b(24)~~~~~~~~~|-(24)~~~~~~~~~~~~|
A|-----------------|-----------------|-----------------|-----------------|
F|-----------------|-----------------|-----------------|-----------------|
C|-2---------------|(2)--------------|-----------------|-----------------|
G|-0---------------|(0)--------------|-----------------|-----------------|
D|-----------------|-----------------|-----------------|-----------------|
w/bar
Before the Chorus -.5 -.5 -.5 -.5 -.5 -.5 -.5
D|-----------------|-----------------|---------------------------------|
A|-----------------|-----------------|---/--/--/--|-/--/--/--/--|
F|-----9-----9-----|-7-----7-----76-|-5-(5)-(5)-(5)-|-(5)-(5)-(5)-(5)-|
C|-----7-----7-----|-5-----5-----54-|-3-(3)-(3)-(3)-|-(3)-(3)-(3)-(3)-|
G|-0-0---0-0---0-0-|---0-0---0-0-----|---------------|-----------------|
D|-----------------|-----------------|---------------|-----------------|
Chorus
D|-------------|--------|-----------|-----------|-------------------|
A|-1-1--1-1----|----5-6-|-(6)---6-7-|-(7)---7-8-|-(8)-6-6-6-6-6-6---|
F|-0-0--0-0----|----5-5-|-(5)---5-5-|-(5)---5-5-|-(5)-5-5-5-5-5-5---|
C|-3-3--3-3--2-|----2-3-|-(3)---3-4-|-(4)---4-5-|-(5)-3-3-3-3-3-3-0-|
G|-------------|-0------|-----0-----|-----0-----|-------------------|
D|-------------|--------|-----------|-----------|-------------------|
D|---------|-----------|-----------|-------------------|
A|-----5-6-|-(6)---6-7-|-(7)---7-8-|-(8)-6-6-6-6-6-6---|
F|-----5-5-|-(5)---5-5-|-(5)---5-5-|-(5)-5-5-5-5-5-5---|
C|-2---2-3-|-(3)---3-4-|-(4)---4-5-|-(5)-3-3-3-3-3-3-0-|
G|---0-----|-----0-----|-----0-----|-------------------|
D|---------|-----------|-----------|-------------------|

Bridge
D|-----------------|---------------|-------------|
A|-10--9----13--12-|-8--7----10--9-|-6--5---8--7-|
F|-9---9--12----12-|-8--7--10----9-|-5--5--7---7-|
C|-7---6--12----9--|-5--4--10----6-|-3--2--7---4-|
G|--------10-------|-------8-------|-------5-----|
D|-----------------|---------------|-------------|

Solo
D|-----------------|------------------------|
A|-----------------|------------------------|
F|-7-7-7-7-7-7-7-7-|-7--7--7--7--7--7--7--7-|
C|-5-5-5-5-5-5-5-5-|-5--5--5--5--5--5--5--5-|
G|-----------------|------------------------|
D|-----------------|------------------------|
|
|
D|-----------------|------------------------|
A|-----------------|-----6-5-8-5--8(10)r8p5-|
F|-----------------|-5-4--------------------|
C|-------------6-7-|------------------------|
G|---------8-7-----|------------------------|
D|-----------------|------------------------|

D|-----------------------------------------|---5------------------------|
A|-8p5h8p5-5h8p5h8p5h8p5h8p5h8p5h8p5-8b(10)|(8)--8p5---5----------------|
F|-----------------------------------------|---------7---7-5-7(9)r(7)p5-|
C|-----------------------------------------|----------------------------|
G|-----------------------------------------|----------------------------|
D|-----------------------------------------|----------------------------|

p.h. p.h. p.h. p.h.
D|------------------------------|-----------|------------------|
A|------------------------------|-----------|------------------|
F|-7(9)r(7)p5-7(9)r(7)p5--------|-----------|-8-7-8-7-5---7b(9)|
C|-----------------------7------|-----------|-----------7------|
G|-------------------------5b(7)|(5)-5--5p4-|------------------|
D|------------------------------|-----------|------------------|

D|------------------------------|-----------------------|-------------|----|
A|------------------------------|-----------------------|-6-----------|(6)-|
F|----------9---------9---------|-7--------7--------76-|-5-----------|(5)-|
C|----------7---------7---------|-5--------5--------54-|-3-----------|(3)-|
G|---0---0-----0---0-----0---0--|----0--0-----0--0------|-------------|----|
D|------------------------------|-----------------------|-------------|----|
|
|
D|----5-------------------------|-----------------------|-------------|----|
A|------8p5---5-----------------|-----------------------|-------------|----|
F|(7)-------7---8-7-5-7-7-5-----|-----------------------|-------------|----|
C|--------------------------7-5-|-5---------------------|-------------|----|
G|------------------------------|---7-6-53---------5---|gradual-bend-|----|
C|------------------------------|-----------5p3-5-5---5-|-5b(8)-------|(5)-|




Ваше мнение



Капча