knock 'em dead kid
motley crue
drop d tuning- DGCFAD
- slide down
/- slide up
h- hammer on
p- pull off
b- bend
x- palm mute
intro- x4, all open a's are palm muted
d----------------------------------------
g----------------------------------------
c--17--2-----5-----4------7----5--54/5-
f--17--2-----5-----4------7----5--54/5-
a---------0-0---0-0----0-0----0----------
d----------------------------------------
verse- all open a's and 3's on the D are palm muted
d------------------------------------
g------------------------------------
c------------------------------------
f-2-----2-----2-----2-----2----------
a-0-0-0-0-0-0-0-0-0-0-0-0-0-3--2h3p2-
d------------------------------------
d------------------------------------
g------------------------------------
c------------------------------------
f-2-----2-----2-----2-----2----------
a-0-0-0-0-0-0-0-0-0-0-0-0-0-3--2h3p2-
d------------------------------------
d----------------------------
g----------------------------
c----------------------------
f----------------------------
a-5-----5---5---5--5-2h3p2---
d-3-3-3-3-3-3-3-3--3-------3-
d------------------------------------
g------------------------------------
c------------------------------------
f-2-----2-----2-----2-----2----------
a-0-0-0-0-0-0-0-0-0-0-0-0-0-3--2h3p2-
d------------------------------------
d------------------------------------
g------------------------------------
c------------------------------------
f-2-----2-----2-----2-----2----------
a-0-0-0-0-0-0-0-0-0-0-0-0-0-3--2h3p2-
d------------------------------------
d------------------------------------
g------------------------------------
c------------------------------------
f-2-----2-----2-----2-----2----------
a-0-0-0-0-0-0-0-0-0-0-0-0-0-3--2h3p2-
d------------------------------------
d----------------------------
g----------------------------
c----------------------------
f----------------------------
a-5-----5---5---5--5-2h3p2---
d-3-3-3-3-3-3-3-3--3-------3-
d------------------------------------
g------------------------------------
c------------------------------------
f-2-----2-----2-----2-----2----------
a-0-0-0-0-0-0-0-0-0-0-0-0-0-3--2h3p2-
d------------------------------------
chorus- x8, all open a's are palm muted
d--------------------------------------
g--------------------------------------
c----2-----5-----4------7----5--54/5-
f----2-----5-----4------7----5--54/5-
a-------0-0---0-0----0-0----0----------
d--------------------------------------
verse- all open a's and 3's on the D are palm muted
d------------------------------------
g------------------------------------
c------------------------------------
f-2-----2-----2-----2-----2----------
a-0-0-0-0-0-0-0-0-0-0-0-0-0-3--2h3p2-
d------------------------------------
d------------------------------------
g------------------------------------
c------------------------------------
f-2-----2-----2-----2-----2----------
a-0-0-0-0-0-0-0-0-0-0-0-0-0-3--2h3p2-
d------------------------------------
d----------------------------
g----------------------------
c----------------------------
f----------------------------
a-5-----5---5---5--5-2h3p2---
d-3-3-3-3-3-3-3-3--3-------3-
d------------------------------------
g------------------------------------
c------------------------------------
f-2-----2-----2-----2-----2----------
a-0-0-0-0-0-0-0-0-0-0-0-0-0-3--2h3p2-
d------------------------------------
d------------------------------------
g------------------------------------
c------------------------------------
f-2-----2-----2-----2-----2----------
a-0-0-0-0-0-0-0-0-0-0-0-0-0-3--2h3p2-
d------------------------------------
d------------------------------------
g------------------------------------
c------------------------------------
f-2-----2-----2-----2-----2----------
a-0-0-0-0-0-0-0-0-0-0-0-0-0-3--2h3p2-
d------------------------------------
d----------------------------
g----------------------------
c----------------------------
f----------------------------
a-5-----5---5---5--5-2h3p2---
d-3-3-3-3-3-3-3-3--3-------3-
d------------------------------------
g------------------------------------
c------------------------------------
f-2-----2-----2-----2-----2----------
a-0-0-0-0-0-0-0-0-0-0-0-0-0-3--2h3p2-
d------------------------------------
chorus- x8, all open a's are palm muted
d--------------------------------------
g--------------------------------------
c----2-----5-----4------7----5--54/5-
f----2-----5-----4------7----5--54/5-
a-------0-0---0-0----0-0----0----------
d--------------------------------------
solo
d--13b--11-13--10-11-13-10-11-13-13-10-11-13--10-11-13-10---10-------------
g---------------------------------------------------------13---13b-13b--11-
c--------------------------------------------------------------------------
f--------------------------------------------------------------------------
a--------------------------------------------------------------------------
d--------------------------------------------------------------------------
d-------------------------------------------------------------
g--11-13-11---------------------------------------------------
c-----------12-12-11-10-10----10-8----------------------------
f--------------------------10-------10-8-----8----------------
a-----------------------------------------10---10-8-86----8b-
d--------------------------------------------------------8----
d----------------------------5-8-8-8----------------------17-20-17-20-20-17-
g--------------------5-8-8-8----------17-17-20-20-17-20b--------------------
c-----------5-7-7-7---------------------------------------------------------
f--5-7-7-7------------------------------------------------------------------
a---------------------------------------------------------------------------
d---------------------------------------------------------------------------
d-----------17-20-20--------17-20-17-20-17--------17-17----17-
g--17-19-20-----------17-20-----------------17-20-------20----
c-------------------------------------------------------------
f-------------------------------------------------------------
a-------------------------------------------------------------
d-------------------------------------------------------------
d--20-20-------17h20--------17h20-20b------
g--------17h20-------17h20-------------11b-
c------------------------------------------
f------------------------------------------
a------------------------------------------
d------------------------------------------
d--8---------------------------------------------------
g----11-8-8--------------------------------------------
c-----------11-10-10-8-----8---------------------------
f-----------------------10----10-8-----8---------------
a-----------------------------------10---10-86--------
d-----------------------------------------------8-6-6b-
d---------------------------------------------------------------
g----------------------------------------8h11p8h11p8h11p8h10p8-
c-----------------------------------8-8-------------------------
f------------------------8-8-10-10------------------------------
a----------6-6-8-8-10-10----------------------------------------
d--6-6-8-8------------------------------------------------------
d------------------------------------5--5-------------------
g-----------------------------------------8-7-5-----5-------
c---------------------------5-------------------8-7---8-7-5-
f--x-5---5---5---5---5--------7---5-------------------------
a-----7---7---7---7---7-5-7---------------------------------
d-----------------------------------------------------------
d---------------------------------------------------------
g---------------------------------------------------------
c--4----5---------------------------------------7-7-10-10-
f----7-----7-5-7----------------------7-7-10-10-----------
a--------------------------8-8-10-10----------------------
d----------------8-8-10-10--------------------------------
d------------8----8h10----12----12------12--
g--8-8-10-10---10---------15b---15b-----15b-
c--------------------------------------------
f--------------------------------------------
a--------------------------------------------
d--------------------------------------------
chorus- x8, all open a's are palm muted
d--------------------------------------
g--------------------------------------
c----2-----5-----4------7----5--54/5-
f----2-----5-----4------7----5--54/5-
a-------0-0---0-0----0-0----0----------
d--------------------------------------
outro
d-------------------------------
g-------------------------------
c-------------------5-----------
f--2---2----2--5----3-----5---2-
a--0---0----0--3----3-----3---0-
d--------------3----------------
questions email me- [email protected]




Ваше мнение



Капча