girls girls girls
motley crue

drop d tuning- DGCFAD

h -hammer on
p -pull off
b -bend
/ -slde up
-slide down
PM -palm mute
^ -use bar
~ -let ring

INTRO -with motorcycles
d-3-----3-----3-----3^-
g-3-----3-----3-----3^-
c-0-----0-----0-----0^-
f-0-----0-----0-----0^-
a----------------------
d-3-----3-----3-----3^-

NH NH
d-----------------------------------------------------------------------------
g-----------------------------------------------------------------------------
c-12-/-/-/--~~~--/-/-/-/-/-/-----7-/-/-/-/-/-/-/-/-/-/---^-
f-----------------------------------------------------------------------------
a-----------------------------------------------------------------------------
d-----------------------------------------------------------------------------

PM
d---------------------------------------------------------------------------
g---------------------------------------------------------------------------
c------------------------9-------9------------------------------------------
f------------------------9-------9------------------------2--2-------2------
a-5/75----4/5--4--------7-------7---5-/75-----4/54-----2--2-------2------
d-3/53--0-2/3--2---0-0-----0-0------3-/53---0-2/32--0--------3-4-----3-4-

PM
d-----------------------------------------------------------------------------
g-----------------------------------------------------------------------------
c------------------------9------9---------------------------------------------
f------------------------9------9------------------------2--2-------2---------
a-5-/75-----4/54-------7------7---5-/75-----4/54-----2--2-------2---------
d-3-/53--0--2/32--0-0----0-0------3-/53--0--2/32--0--------3-4-----0-3-4--

VERSE
d-------------------------------------------------------
g-------------------------------------------------------
c---------------7--/-------------------------9--/-----
f-2-------------7----------2-----------2------9---------
a-0------------------------0-----------0----------------
d------------------------------3----------------------3-

d----------------------------------------------
g----------------------------------------------
c-----------7------------------76/76/76/76-
f--2--------7--------2-/----------------------
a--0-----------------0---------54/54/54/54-
d---------------------------3------------------

CHORUS PM
d-------------------------------------------------------------------------
g-------------------------------------------------------------------------
c------------------------9------9-----------------------------------------
f------------------------9------9-------------------------2--2------2-----
a-5/75-----4/54--------7------7----5-/75-----4/54-----2--2------2-----
d-3/53--0--2/32---0-0----0-0-------3-/53--0--2/32--0-------3-4----3-4-

PM
d------------------------------------------------------------------------
g------------------------------------------------------------------------
c-------------------------2-------2~--------------------------2--2--2----
f-5-/75----4/54---2-2---2-------2~---5-/75----4/54--2-2---2--2--2----
a-3-/53-0--2/32---0-0------0-0-------3-/53--0-2/32--0-0------------0-
d------------------------------------------------------------------------

PM
d-----------------------------------------------------------
g-----------------------------------------------------------
c-----------------------9-------9---------------------------
f-----------------------9-------9-------------------------2-
a-5/75-----4/54-------7-------7----5-/75-----4/54-----2-
d-3/53--0--2/32--0-0-----0-0-------3-/53--0--2/32--0----

d------------------------------------------
g------------------------------------------
c------------------------------------------
f-2--------2------------2--------2---------
a-2--------2------------2--------2---------
d-----3-4-------0-3-4-------3-4------3-4-0-

BRIDGE
d----------------------------------------------------
g----------------------------------------------------
c----------------------------------------------------
f----------------------------------------------------
a-2--4--2--4-5---5-4--2--4---2--4--2-4-5---5-4--2--4-
d-0--0--0--0-0---0-0--0--0---0--0--0-0-0---0-0--0--0-

d---------------------------------------------------------------------
g---------------------------------------------------------------------
c---------------------------------------------------9p8-----9-8---11~-
f-4-6--4-6---4-----2--2--2----9-11~--------9-11-11------9-9-----9-----
a-2-4--2-4---2-----0--0--0--------------------------------------------
d---------------------------------------------------------------------

d---------------------------------------------3--3-
g---------------------------------------------3--3-
c---------------------------------------------0--0-
f-2--2--2---2----2--2--2----2--2---2---2--2---0--0-
a-2--2--2---2----2--2--2----2--2---2---2--2--------
d-0--0--0---0----0--0--0----0--0---0---0--0---3--3-

outro-solo
d---------------------------------------
g---------------------------------------
c---------------------------------------
f---------------------------------------
a-5/75-----4/54--2--2---4--2---2--4-2-
d-3/53--0--2/32--0--0---0--0---0--0-0-

d----------------------------------------
g----------------------------------------
c----------------------------------------
f----------------------------------------
a-5-/75-----4/54--2--2---4--2---2--4-2-
d-3-/53--0--2/32--0--0---0--0---0--0-0-

d----------------------------------------------
g----------------------------------------------
c----------------------------------------------
f----------------------------------------------
a-5-/75-----4/54--2--2--4--2--2--4-2-5-
d-3-/53--0--2/32--0--0--0--0--0--0-0-3-

d--------------------------------------------
g-----15--/--///----15-/--//----------
c--14b------------------14-----------(14)-/-
f--------------------------------------------
a--------------------------------------------
d--------------------------------------------

d---------------------------------------
g---------------------------------------
c---------------------------------------
f---------------------------------------
a-5-/75-----4/54--2--2--4--2---2--4-2-
d-3-/53--0--2/32--0--0--0--0---0--0-0-

d--------------------------------12------------
g--15--/--///---15-------15----13----------
c--14b--------------14--/---14------14^/^/^-
f----------------------------------------------
a----------------------------------------------
d----------------------------------------------

d------------------------------------------
g------------------------------------------
c------------------------------------------
f--5-/75-----4/54--2--2--2--2---2--2-2-2-
a--3-/53--0--2/32--0--0--0--0---0--0-0-0-
d------------------------------------------

d--------------------------------------
g---8----/--///-----8-----8--------
c---7b------------------7-----7b---5^6-
f--------------------------------------
a--------------------------------------
d--------------------------------------

d---------------------------------------------
g---------------------------------------------
c---------------------------------------------
f--5-/75-----4/54--2--2--2--2----2--2--2--2-
a--3-/53--0--2/32--0--0--0--0----0--0--0--0-
d---------------------------------------------

d-----------------------5-----------------------
g--8---/--///----8----8--5h8p5-5/-5/--15--
c--7b----------------7----------------------14b-
f-----------------------------------------------
a-----------------------------------------------
d-----------------------------------------------

d---------------------------------------------
g---------------------------------------------
c---------------------------------------------
f---------------------------------------------
a-5-/75-----4/54--2--2--4--2----5-/74--2--2--4--2
d-3-/53--0--2/32--0--0--0--0----3-

d---------------------------------------------
g---------------------------------------------
c---------------------------------------------
f---------------------------------------------
a-5/75-----4/54--2--2--2--4--2---2--2-4-2-5-
d-3/53--0--2/32--0--0--0--0--0---0--0-0-0-3-

F U L L F U L L F U L L FULL
d-----|-----|---|------------|----|----|----------|-----|---|-----------|---|-------
g-15--15---15---|---15---15--15--15----|---15--15-15---15---|---15--15--15--15------
c-----14b--14b--14b------14--14b-14b--14b------14-14b-14b--14b------14--14b-14b--12-
f-----------------------------------------------------------------------------------
a-----------------------------------------------------------------------------------
d-----------------------------------------------------------------------------------

d----------------------------------
g----------------------------------
c----------------------------------
f----------------------------------
a-5/75-----4/54--2--2--2--4--2-5-
d-3/53--0--2/32--0--0--0--0--0-3-

d----------------------------------------------------------------------------12-14-
g-15b--12h15p12h15p--12h15p12h15p12h15p12h15p---12h15p12h15p12h15p12h15-15b~-------
c----------------------------------------------------------------------------------
f----------------------------------------------------------------------------------
a----------------------------------------------------------------------------------
d----------------------------------------------------------------------------------

d--------------------------------------------------
g--------------------------------------------------
c--------------------------------------------------
f--------------------------------------------------
a-5-/-7--5-----4-/-5--4---2---2---2---4---2----2-
d-3-/-5--3--0--2-/-3--2---0---0---0---0---0----0-

FULL
d-15-12-14-15-12-14-15-12--14-15-12-14-15-12-14-15--12-14-13-12-14-13-12-12--|--22b-
g---------------------------------------------------------------------------15b-----
c-----------------------------------------------------------------------------------
f-----------------------------------------------------------------------------------
a-----------------------------------------------------------------------------------
d-----------------------------------------------------------------------------------

d-------------------------------------
g-------------------------------------
c-------------------------------------
f-------------------------------------
a--2--2---2--2--2--2---2--2--2--2---2-
d--0--0---0--0--0--0---0--0--0--0---0-

Full bends on all
d-22~-22b-22b-22b-22~-22b-22b-22b-22~-22-22b-22-22b--22b-
g--------------------------------------------------------
c--------------------------------------------------------
f--------------------------------------------------------
a--------------------------------------------------------
d--------------------------------------------------------

d------------------------------------
g------------------------------------
c------------------------------------
f------------------------------------
a-2--2---2--2--2--2---2--2--2--2---2-
d-0--0---0--0--0--0---0--0--0--0---0-

F U L L
d-22~-22b-22b--------------------------------------------------------------
g--------------------------------------------------------------------------
c-------------------11/12--12-12-12-1211--9--11/12--12-12-1211--9--11/12-
f-------------------11/12--12-12-12-1211--9--11/12--12-12-1211--9--11/12-
a--------------------------------------------------------------------------
d--------------------------------------------------------------------------

d------------------------------------
g------------------------------------
c------------------------------------
f------------------------------------
a-2--2---2--2--2--2---2--2--2--2---2-
d-0--0---0--0--0--0---0--0--0--0---0-

d----------------------------------------------------------------
g----------------------------------------------------------------
c--12-12-12-1211--11/12-12-12-12-1211--11/12-12-12-12-1211--9-
f--12-12-12-1211--11/12-12-12-12-1211--11/12-12-12-12-1211--9-
a----------------------------------------------------------------
d----------------------------------------------------------------

d-------------------------------------------------------------------------------
g-------------------------------------------------------------------------------
c---11/12--12-12-1211-9-11/12--------------------------------------------------
f---11/12--12-12-1211-9-11/12--------------------------------------------------
a--------------------------------------4--2--5----5/75----4/54--2-2---2--2--2-
d--------------------------------------0--0--3----3/53--0-2/32--0-0---0--0--0-

d-----------------------------------------------------
g-----------------------------------------------------
c-----------------------------------------------------
f-12-1211-9--12--12/1412----------------------------
a-12-1211-9--12--12/1412------4/54--2--2-2---2---2-
d-----------------------------0-2/32--0--0-0---0---0-

d-22b--22-21-1917h-19p-15h-17p-14h-15p-12h-14p-10h-
g---------------------------------------------------
c---------------------------------------------------
f---------------------------------------------------
a---------------------------------------------------
d---------------------------------------------------

d--12p-109h-10p-97h-9p-75h-7p-53h-4h-5p-0-
g---------------------------------------------
c---------------------------------------------
f---------------------------------------------
a---------------------------------------------
d---------------------------------------------

questions email me - [email protected]




Ваше мнение



Капча