FIND MYSELF
Music: Sixx, Mars, Lee
Lyrics: Sixx
Performed by MOTLEY CRUE
>From the album GENERATION SWINE 1997Verse
|----------------------------|
|----------------------------|
|--------------4-------------|
|--------------4-------------|
|--------------2---1--0------|
|--3-------0-----------------|
(gradual bend)
I gotta find myself some love
I gotta find myself some drugs
I gotta find some liquid sunshine
|----------------------------|
|----------------------------|
|----------------------------|
|----------------------------|
|----------------------------|
|----3-----------------------|
(gradual bend)
I gotta find myself
I gotta find myself
Chorus:
D
I'm a sick muthafucka
G
I'm a sweet sucka mutha
D
Ain't no one tougher
G D C
I'm a wreck, I'm a sleaze
G D
I'm a rock and roll disease
D C
I'm a pusher, I'm a shover

G
Ain't no muthafucker tougher


Ваше мнение



Капча