#-----------------------------PLEASE NOTE-------------------------------------#
#This OLGA file is the author's own work and represents their interpretation #
#of the song. You may only use this file for private study, scholarship, or #
#research. Remember to view this file in Courier, or some other monospaced #
#font. See http://www.olga.net/faq/ for more information. #
#-----------------------------------------------------------------------------#
Date: Thu, 7 Sep 2000 23:23:27 -0400
From: [email protected]
Subject: m/motley_crue/dragstrip_superstar.tab
Dragstrip Superstar
>From Motley Crue's New Tattoo
This is my first tab. Best I could do with it. Wish I could do more for you
guys, but Corel sucks.
I have no clue as to what I am tuned to. I play by ear and finally learned
how to read tab a couple
weeks ago. I hope you enjoy. Any suggestions are welcome. Email Greg Campbell
at [email protected]
Intro Play five times
--------|---------|
--------|---------|
--------|-8-------|
-3------|-8--8--2-|
-3------|-6--8--2-|
-1------|----6--0-|
Verse
Jail bait....
Fuel inject,...
*
---------------------------------|--------------------|------------------|
---------------------------------|--------------------|------------------|
-6-6-6-6-6-6-6-6-6-6-6-6-6-6-6-6-|--------------------|------------------|
-6-6-6-6-6-6-6-6-6-6-6-6-6-6-6-6-|------8-8-8-8-8-8-8-|----8-8-8-8-8-8-8-|
-4-4-4-4-4-4-4-4-4-4-4-4-4-4-4-4-|--0---8-8-8-8-8-8-8-|----8-8-8-8-8-8-8-|
---------------------------------|------6-6-6-6-6-6-6-|--0-6-6-6-6-6-6-6-|
*First small lead during and after first vocal (third and forth bars)
-------------6-----------|------------------------------|
-------------------------|------------9-----------------|
--/7--8--10-----8---7~---|--7--8--10-----8---7~---------|
-------------------------|------------------------------|
-------------------------|------------------------------|
-------------------------|------------------------------|
Pre chorus
Mama ....
-------------|--------|---------------|--------6------|-----------8-------|
-------------|--------|---------------|---------------|-------------------|
-------------|--------|---------------|-7-8-10---8-7--|-7--8--10----8--7--|
-------------|-15~~~~-|---------------|---------------|-------------------|
-6-8-9---11--|--------|--/6-/8-9--/11-|---------------|-------------------|
-------------|--------|---------------|---------------|-------------------|

I haven't learned the chorus yet, but when I do, I will tab it and post it.
Enjoy.


Ваше мнение



Капча