Motley crue, Dr.Feelgood.
Tabbed by Storm [email protected]

Motley Crue
Dr. Feelgood
|---|---------------------------------|----------------------------------|
|---|---------------------------------|----------------------------------|
|---|---------------------------------|----------------------------------|
|---|---------------------------------|----------------------------------|
|---|---------------------------------|----------------------------------|
|x-|-0-0-0-0---0---0---0---0--0--0--0|-0--0--0---0--0--0--0--0--0--0----|


whammy................................... hr.
|------------------------------------------|------------------------------|
|------------------------------------------|------------------------------|
|------------------------------------------|-7-7-7-7-7-7-7-7-5-5-5-5-5-5-5|
|------------------------------------------|-----------------5-5-5-5-5-5-5|
|-12--12---12-----12-12-12-----12-12-12-12-|------------------------------|
|------------------------------------------|------------------------------|

Whammy.......
|-------------------------------------------------------------------------|
|---------------------------------------------7-7-7-7-7-7-7-7-------------|
|-7-7-7-7-7-7-7-7---12-12-12-12-12-12-12-12---7-7-7-7-7-7-7-7-------------|
|-------------------12-12-12-12-12-12-12-12-------------------------------|
|-------------------------------------------------------------------------|
|-------------------------------------------------------------------------|
________________________________________________________
|-------------------------------------------------------------------------|
|-------------------7-7-7-7-7-7-7-7---------------------------------------|
|-5-5-5-5-5-5-5-5---7-7-7-7-7-7-7-7--12-12-12-12-12-----------------------|
|-5-5-5-5-5-5-5-5--------------------12-12-12-12-12-----------------------|
|-------------------------------------------------------------------------|
|------------------------------------------------------0--0---0----------|
________________________________________
|---------------------------------------------------------3----3----------|
|-----------------------3----2----------------------------3----3----------|
|-----------------------2----2--------------------------------------------|
|-------------------------------------------------------------------------|
|-------------------------------------------------------------------------|
|----0-0-0-2-2-3-3-4-5----------------0-0-0-2-2-3-3-4-5-------------------|

|-------------------------------------------------------------------------|
|-------------------------------------------------------------------------|
|-2-------2--2-----------------------------2------------------------------|
|-2-------2--2-----------------------------2--------2---------------------|
|-0-------0--0-----------------------------0--------2---------------------|
|------3----------------------------------------3---0---------------------|

|-------------------------------------------------------------------------|
|-------------------------------------------------------------------------|
|-2-------2--2-----------------------------2------------------------------|
|-2-------2--2-----------------------------2--------2---------------------|
|-0-------0--0-----------------------------0--------2---------------------|
|------3----------------------------------------3---0---------------------|

|-------------------------------------------------------------------------|
|-------------------------------------------------------------------------|
|-2-------2--2------------------------2-----------------------------------|
|-2-------2--2------------------------2--------2--------------------------|
|-0-------0--0-----0---0---0---0------0--------2--------------------------|
|------3-----------------------------------3---0-----0---0---0---0--------|

|-------------------------------------------------------------------------|
|-------------------------------------------------------------------------|
|-2-------2--2-------------2----------2-----------------------------------|
|-2-------2--2-------------2----------2--------2--------------------------|
|-0-------0--0-----0---0---0---0------0--------2--------------------------|
|------3-----------------------------------3---0-----0---0---0---0--------|
|----------------------------------------------------------------3----3---|
|-----------------------3----2-----------------------------------3----3---|
|-----------------------2----2--------------------------------------------|
|-------------------------------------------------------------------------|
|-------------------------------------------------------------------------|
|0-0-0-2-2-3-3-4-5-------------------0-0-0-2-2-3-3-4-5--------------------|
|---------------------------------------------------------3----3----------|
|-----------------------3----2----------------------------3----3----------|
|-----------------------2----2--------------------------------------------|
|-------------------------------------------------------------------------|
|-------------------------------------------------------------------------|
|--0-0-0-2-2-3-3-4-5-------------------0-0-0-2-2-3-3-4-5------------------|

|--------------------------------------------------------------------|
|--------------------------------------------------------------------|
|---------------------------9---------------------------------------|
|-5-----------7-------------9---------------------------------------|
|-5-----------7-------------7---------------------------------------|
|-3-----------5---------------------0---0---0---0---0---0---0---0----|

|--------------------------------------------------------------------|
|--------------------------------------------------------------------|
|---------------------------9---------------------------------------|
|-5-----------7-------------9---------------------------------------|
|-5-----------7-------------7---------------------------------------|
|-3-----------5---------------------0---0---0---0---0---0---0---0----|

|--------------------------------------------------------------------|
|--------------------------------------------------------------------|
|---------------------------9---------------------------------------|
|-5-----------7-------------9---------------------------------------|
|-5-----------7-------------7---------------------------------------|
|-3-----------5---------------------0---0---0---0---0---0---0---0----|

|-----------------------------------------------------------------------|
|-----------------------------------------------------------------------|
|-----------------------------------------------------------------------|
|-5----------------7----------------9-----------------------------------|
|-5----------------7----------------9-----------------------------------|
|-3----------------5----------------7-----------------------------------|

Solo
|-12b-----12b---12-------------------------------------------17b-----b---|
|-15b-----15b------15-15-14-13-12----------------------------------------|
|---------------------------------12-14p12-------------------------------|
|------------------------------------------14-12h14p12-------------------|
|------------------------------------------------------14----------------|
|------------------------------------------------------------------------|
hr. pick scrapes________________________________
|--15--------------------------------------------------------------------|
|---------x------x------x---------x--------x----------x------4p2p0------|
|------------------------------------------------------------------------|
|------------------------------------------------------------------------|
|------------------------------------------------------------------------|
|------------------------------------------------------------------------|

(whammy___________________________________________)
|------------------------------------------------------------------------|
|------------------------------------------------------------------------|
|------------------------------------------------------------------------|
|------------------------------------------------------------------------|
|------------------------------------------------------------------------|
|-0-0-0---0--0--0--0--0--0--0--0--0-0-0--0-0--0--0--0--0--0-0-0--0--0-0--|

hr.
|------------------------------|---------------------------------------|
|------------------------------|---------------------------------------|
|-7-7-7-7-7-7-7-7-5-5-5-5-5-5-5|--7-7-7-7-7-7-7-7-7--12-12-12-12-12-12-|
|-----------------5-5-5-5-5-5-5|--7-7-7-7-7-7-7-7-7--12-12-12-12-12-12-|
|------------------------------|---------------------------------------|
|------------------------------|---------------------------------------|
---------------------------------------------------------------

|-12---12----12-------------12h14h15----------12h14h15---------12h14h15--|
|-15b--15b---15b---12h14h15----------12h14h15----------12h14h15----------|
|------------------------------------------------------------------------|
|------------------------------------------------------------------------|
|------------------------------------------------------------------------|
|------------------------------------------------------------------------|

|----------12h14h15----------12h14h15----------12h14h15----------12h14h15|
|-12h14h15----------12h14h15----------12h14h15----------12h14h15---------|
|------------------------------------------------------------------------|
|------------------------------------------------------------------------|
|------------------------------------------------------------------------|
|------------------------------------------------------------------------|

|-0---/--0--/---0-------------------------15b--xxxxx--------------|
|------------------17b--17b--17b-17b--17--------------------------------|
|-----------------------------------------------------------------------|
|-----------------------------------------------------------------------|
|----------------------------------------------------------14-14-13-13--|
|-----------------------------------------------------------------------|

|-----------------------------------------------6/7---7-----9-----9-----|
|----------------------------------------8-8-8------9---9p7---7h9---9p7-|
|---------------------------6-6-6--9-9-9--------------------------------|
|--------------------5-5--7---------------------------------------------|
|-7p5h7-54h5-5--7-7----------------------------------------------------|
|-----------------------------------------------------------------------|

|-7----7-------7-------7-----7-----7------7----7---7----7---------------|
|-----------------75--------------------------------------------5-----|
|---9-----7h9--------------8----9-----8-----6----8---6-----8-----------|
|-----------------------------------------------------------------------|
|-----------------------------------------------------------------------|
|-----------------------------------------------------------------------|


|---------------------------------------------------------3----3----------|
|-----------------------3----2----------------------------3----3----------|
|-----------------------2----2--------------------------------------------|
|-------------------------------------------------------------------------|
|-------------------------------------------------------------------------|
|----0-0-0-2-2-3-3-4-5----------------0-0-0-2-2-3-3-4-5-------------------|
|--------------------------------------------------------------------|
|------------------------------------------------------------3---2---|
|---------------------------9-------------------------------2---2---|
|-5-----------7-------------9---------------------------------------|
|-5-----------7-------------7---------------------------------------|
|-3-----------5-------------------------0-0-0-2-2-3-3-4-5------------|

|--------------------------------------------------------------------|
|------------------------------------------------------------3---2---|
|---------------------------9-------------------------------2---2---|
|-5-----------7-------------9---------------------------------------|
|-5-----------7-------------7---------------------------------------|
|-3-----------5-------------------------0-0-0-2-2-3-3-4-5------------|
|--------------------------------------------------------------------|
|------------------------------------------------------------3---2---|
|---------------------------9-------------------------------2---2---|
|-5-----------7-------------9---------------------------------------|
|-5-----------7-------------7---------------------------------------|
|-3-----------5-------------------------0-0-0-2-2-3-3-4-5------------|

|--------------------------------------------------------------------|
|--------------------------------------------------------------------|
|--------------------------------------------------------------------|
|-5-----------7----------------9-------------------------------------|
|-5-----------7----------------9-------------------------------------|
|-3-----------5----------------7-------------------------------------|

|-3--3-0--3--3-0----------3--3-0---3---3-3----------3--3-0---3--3/5-5---|
|-3--3-0--3--3-2----------3--3-0---3---3-3----------3--3-0---3--3/5-5---|
|-----------------------------------------------------------------------|
|-----------------------------------------------------------------------|
|-----------------------------------------------------------------------|
|-----------------------------------------------------------------------|




Ваше мнение



Капча