О том и речь что мгла и тишина
Речам не помеха.
Простор открыт, и можно толковать
О нем бескорыстно.
Но паче слов, ясней, чем голоса,
Слышны в ету пору
Крыла богинь, резцы нетопырей,
Шаги пехотинцев.
Театры спят, молчит кинематограф,
Ночь беспредельна,
Мерцает Марс, и вреня, замерев,
Стоит изваяньем,
Такой порой, когда малейший миг
И звук - дивно долгий, -
О том и речь что нету ничему
Конца - и не будет.
Бродячий цирк уныло пересек
Черту городскую
И едет прочь, вполголоса сквозь сон
Браня бездорожье.
Для колеса верста равна версте,
Ему все едино -
Пески, селенья, горы, города,
Леса, водопады...
... Ничто, ничто не сгинет без следа,
Никто не ищезнет,
Через века всех вычислит и вос-
Создаст реставратор,
Всему, всему отважный архивист
Вернет цвет и образ,
Дела зачтет и лица восстановит -
Все, кроме наших.
И циркачей, и праздных поселян
Спасет Мнемозина,
Из-под земли лопатой извлечет
Дворцы, мавзолеи...
Одни лишь мы сольемся с тишиной
И мглой. Мы - солдаты,
Нам все едино - горы, города,
Века. Мы шагаем...
Tablature:
O tom i rech... pome xa
Voice: AAAc H AAAA c H A AA c H
Am Dm F
E|--0---0-||--0---0-|--0---0-|----5---|--1---0-|
H|--1---1-||--1---1-|--1---1-|--6---6-|--1---0-|
G|--2---2-||--2---2-|--2---2-|7-----7-|--2---1-|
D|--------||--------|--------|----0---|--------|
A|0-------||0-------|0-------|0-------|3---2---|
E|----0---||----0---|----0---|--------|--------|
Beskorystno
Voice: AAAc H AAAAA H c cc g# g
Chords: Am Am/HCm G# C
E |--0---0-|--0-----|----3---|--4---3-|
H |--1---1-|--1-----|--4---4-|--4---5-|
G |--2---2-|--2-----|5-----5-|--5---5-|
D |--------|--------|----5---|--------|
A |0-------|0---0-2-|3-------|--------|
E |----0---|--------|--------|4---3---|
Etu po ru
Fffg# g#dddd f f d# gg f e
Fm A# D# C/F
E |--1---1-|--1---1-|----3---|----3---|
H |--1---1-|--3---3-|--4---4-|--5---5-|
G |--1---1-|--3---3-|3-----3-|------5-|
D |--------|--------|----5---|--------|
A |----3---|----1---|--------|3-------|
E |1-------|1-------|3-------|----3---|
Shagi pexotincev... Teatry
Fffd# d#ddddc G#G GG G# G cccd# d (as before, but
Fm7 Fm7-5 Cm G# G Cm in Cm)
E |--1---1-|--1----1|--3---3-|--4---3-||--3---4-|...
H |--1---1-|--1----1|--4---4-|--4---3-||--4---4-|...
G |--1---1-|--1----1|--5---5-|--5---4-||--5---5-|...
D |3---1---|0-------|--------|--------||--------|...
A |--------|----3---|--------|--------||3-------|...
E |--------|--------|3---3---|4---3---||----3---|...
1st couplet starts in Am and finishes in Cm
2nd couplet starts in Cm and finishes in D#m
3rd couplet starts in D#m and finishes in F#m
4th couplet starts in F#m and finishes in Am
1st couplet starts in Am and finishes in Cm
1990




Ваше мнение



Капча