О, город слез! Мечта, мечта!
Контрольно-пропускной режим!
Раскрась его во все цвета -
Вовек не станет он цветным.
Какой бы в нем смычок не пел,
Какой бы кипарис не рос -
Не здесь твои сады, отрада -
Здесь город слез.
В его стенах под звон цепей
Брожу, прижав ладонь ко лбу.
Здесь мог бы я, хоть сам плебей,
Открыто презирать толпу,
Здесь мог бы я, под пули лоб
Подставив, избежать седин,
Но, даже умерев, не мог бы
Побыть один.
О, город слез! О, кровь и гнев!
Клевретство, мятежи, нужда!
Ликует всяк, чужое сьйев,
Все как везде, все как всегда,
Привычный вид, извечный лад,
Воистину роптать грешно -
Обычные дела животных,
Не Бог весть что.
... Но странно ли, что вновь и вновь,
Пять лет назад, вчера, сейчас
Мне хочется сказать Кому-то:
- Помилуй нас...
Tablature:
Slowly (1 tact = 1. 5 seconds)
Text O,
Voice f#
Hm
E|---2-2---2-2|---2-2---2-2|---2-2---2-2|---2-2---2-2|
H|---3-3---3-3|---3-3---3-3|---3-3---3-3|---3-3---3-3|
G|---4-4---4-4|---4-4---4-4|---4-4---4-4|---4-4---4-4|
D|------------|------------|------------|------------|
A|2-----------|2-----------|2-----------|2-----------|
E|------2-----|------2-----|------2-----|------2-----|
1, 2 couplets:
Gorod rezhim Ras-
-go stenax ko lbu Zdes'
F#f#e hf#f#e h f#ee ed c#d d
Em Hm
E|---0-0------|---0-0------|---0-0---0-0|---2-2---2-2|
H|---0-0------|---0-0------|---0-0---0-0|---3-3---3-3|
G|---0-02--0--|---0-02--0--|---0-0---0-0|---4-4---4-4|
D|--------2--2|--------2--0|------------|------------|
A|------------|------------|------2-----|2-----------|
E|0-----0-----|0-----0-----|0-----------|------2-----|
-kras" cvetnym Ka
Mog by ja tolpu Zdes'
F#f#e hf#f#e h f#ee ed c#d d
Em Hm
E|---0-02--0--|---0-0------|---0-0---0-0|---2-2---2-2|
H|---0-0--0--0|---0-02--0--|---0-0---0-0|---3-3---3-3|
G|---0-0------|---0-0--0--0|---0-0---0-0|---4-4---4-4|
D|------------|------------|------------|------------|
A|------------|------------|------2-----|2-----------|
E|0-----0-----|0-----0-----|0-----------|------2-----|
-koj by ne ros, Ne
Mog by ja sedin, No,
D c#c# c#d c#c# c#d dd dd e f# f#
F# G D
E|---2-2---2-2|---2-2---2-2|---3-3---3-3|------2--2-2|
H|---2-2---2-2|---2-2---2-2|---3-3---3-3|-----3---3-3|
G|---3-3---3-3|---3-3---3-3|---4-4---4-4|----2----2-2|
D|------------|------------|------------|---0--------|
A|------4-----|------4-----|------------|0-----0-----|
E|2-----------|2-----------|3-----3-----|------------|
Zdes" otrada, zdes" gorod slez. V e- --->2 couplet
Dazhe pobyt'odin. O, --->3 couplet
E ee ee c#ee e d c#h h
A Em Hm
E|---0-0---0-0|------0--0-0|---2-2---2-2|---2-2--2--2||
H|---2-2---2-2|-----0---0-0|---3-3---3-3|---3-3--3--3||
G|---2-2---2-2|----0----0-0|---4-4---4-4|---4-4--4--4||
D|------------|---2--------|------------|------------||
A|0-----------|2-----------|2-----------|2-----------||
E|------0-----|------0-----|------2-----|------0--0--||
3 couplet:
Gorod nuzhda Li-
A ag g a ag g a gg gf# e f# h
Em Hm
E|---0-05--3--|---0-02--0--|---0-0------|---2-2---2-2|
H|---0-0--0--0|---0-0--0--0|---0-02--0--|---3-3---3-3|
G|---0-0------|---0-0------|---0-0--0--0|---4-4---4-4|
D|------------|------------|------------|------------|
A|------------|------------|------------|2-----------|
E|0-----0-----|0-----0-----|0-----0-----|------2-----|
-kuet vsegda Pri-
A ag g a ag g a gg gf# e f# f#
Em Hm
E|---0-05--3--|---0-02--0--|---0-0------|---2-2---2-2|
H|---0-0--0--0|---0-0--0--0|---0-02--0--|---3-3---3-3|
G|---0-0------|---0-0------|---0-0--0--0|---4-4---4-4|
D|------------|------------|------------|------------|
A|------------|------------|------------|2-----------|
E|0-----0-----|0-----0-----|0-----0-----|------2-----|
%%
Vychnyj vid greshno O-
Stranno li sejchas Mne
F#f#e e dc#c# c#d dd dd e f# f#
Em Hm
E|---0-02--0--|---0-0------|---0-0---0-0|---2-2---2-2|
H|---0-0--0--0|---0-02--0--|---0-0---0-0|---3-3---3-3|
G|---0-0------|---0-0--0--0|---0-0---0-0|---4-4---4-4|
D|------------|------------|------------|------------|
A|------------|------------|------2-----|2-----------|
E|0-----0-----|0-----0-----|0-----------|------2-----|
-bychnye ne Bog vest" chto ------> **
Xochetsja Pomiluj nas ------> Coda
E ee ee c#ee e d c#h
A Em Hm
E|---0-0---0-0|------0--0-0|---2-2---2-2|---2-2--2--2||
H|---2-2---2-2|-----0---0-0|---3-3---3-3|---3-3--3--3||
G|---2-2---2-2|----0----0-0|---4-4---4-4|---4-4--4--4||
D|------------|---2--------|------------|------------||
A|0-----------|2-----------|2-----------|2-----------||
E|------0-----|------0-----|------2-----|------0--0--||
**
Em Hm
E|2--0--------|--0--0--0--0|---2-2---2-2|---2-2---2-2|
H|-0--0-2--0--|--0--0--0--0|---3-3---3-3|---3-3---3-3|
G|--0--0-0--0-|--0--0--0--0|---4-4---4-4|---4-4---4-4|
D|--------2--2|------------|------------|------------|
A|------------|0-----------|------------|2-----------|
E|0-----------|---3--2--0--|2-----2-----|------2-----|
No -----> %%
F#
Em Hm
E|2--0--------|--0--0--0--0|---2-2---2-2|---2-2---2-2||
H|-0--0-2--0--|--0--0--0--0|---3-3---3-3|---3-3---3-3||
G|--0--0-0--0-|--0--0--0--0|---4-4---4-4|---4-4---4-4||
D|--------2--2|------------|------------|------------||
A|------------|0-----------|------------|2-----------||
E|0-----------|---3--2--0--|2-----2-----|------2-----||
Coda
C# F# Hm
E|------------|------------|------7-----|7-----7-----|7-----------|
H|6-----------|5-----------|---7-----7--|---7-----7--|------------|
G|---4-4---4-4|---3-3---3-3|--7--7--7--7|--7--7--7--7|------------|
D|---6-6---6-6|---4-4---4-4|------------|------------|------------|
A|4-----------|------------|------------|------------|------------|
E|------4-----|2-----2-----|7-----------|------------|------------|




Ваше мнение



Капча