Спите, мои благородные предки,
Спите, мои полководцы, мои короли.
Скройтесь во мраке своих каменистых столетий,
Своих незапамятных темных веков.
Мирно покойтесь -
Вы все уже совершили, вы сделали больше, чем можно,
Поэтому ваши свершения неоценимы и нету вам равных -
Можете спать.
Пусть отдыхают
Также вернейшие воины ваши, соавторы ваших побед.
Пусть себе дремлют тяжелые всадники,
Лучники, бомбометатели и трубачи.
Пусть почивают и прочие -
То есть погонщики разной полезной скотины,
И слуги, кормившие ваших собак,
И сами собаки, и все их мохнатые дети.
Я же, покуда вы спите,
Подвергну сомнению древние книги, воспевшие вас.
Следом за тем я подвергну сомнению
Подвиги ваши и важность любого из них.
После чего, разумеется,
Я и самих вас подвергну сомнению,
А заодно уж, конечно, и воинов ваших,
И даже ни в чем не повинных слуг и собак.
И, наконец, я подвергну сомненью
Сомненье свое и себя самого вместе с ним...
Спите, мои дорогие. Когда вы проснетесь, увидите,
Все уже будет не так...
Tablature:
Chords: A Am6
E|0-----------0-----------|2-----------2-----------|
H|----2----2------2----2--|---1-----1------1----1--|
G|--2------2----2------2--|--2------2----2------2--|
D|------------------------|------------------------|
A|0-----------0-----------|0-----------0-----------|
E|------0-----------0-----|------0-----------0-----|
A Am6
E|0-----------0-----------|2-----------2-----------|
H|----2----2------2----2--|---1-----1------1----1--|
G|--2------2----2------2--|--2------2----2------2--|
D|------------------------|------------------------|
A|0-----------0-----------|0-----------0-----------|
E|------0-----------0-----|------0-----------0-----|

Spite predki, spite moi koro-
Voice: e c#c#c#c#c#c#c#c#c# c# e c c c c c c c c c c c
A Am6
E|0-----------0-----------|2-----------2-----------|
H|----2----2------2----2--|---1-----1------1----1--|
(1) g|--2------2----2------2--|--2------2----2------2--|
D|------------------------|------------------------|
A|0-----------0-----------|0-----------0-----------|
E|------0-----------0-----|------0-----------0-----|
-li.
H
Em
E|3--------3--------2----0|------------------------|
H|----0----0-----0-----0--|0-----------------------|
G|--0------------0-----0--|---3--4-----------------| ----> (2)
D|------------------------|---------4--5-----------| in the last couplet
A|------2-----------2-----|---------------6--7-----|
E|0-----------0-----------|0--------------------7--|
Skrojtes" temnyx ve-
G e e e e e e e e e e e d#c c c c c c c c c c c
C Adim
E|0-----------0-----------|2-----------5-----------|
H|----1----1------1----1--|----1----1------4----4--|
G|--0------0----0------0--|--2------2----5------5--|
D|------------------------|1-----------4-----------|
A|3-----------3-----------|------0-----------0-----|
E|------3-----------3-----|------------------------|
-kov.
H
Em Em/C Em6 Em7 Em+7
E|7-----------------------|------------------------|
H|----0----0--1--------1--|2--------2--3-----4-----|
G|--0------0------0----0--|----0----0--0-----0-----|
D|--------------2------2--|--2------2-----2-----2--|
A|------------------------|------2-----------2-----|
E|0-----0-----0-----0-----|0-----------0-----------|
Mirno mozhno, po-
C c c c c c c c c c c h h h h h h h h h h h h
Am Em Em6
E|0-----------0-----------|------------------------|
H|----1----1------1----1--|0--------0--2--------2--|
G|--2------2----2------2--|----0----0------0----0--|
D|------------------------|--2-----------2---------|
A|0-----------0-----------|------2-----------2-----|
E|------0-----------0-----|0-----------0-----------|
Etomu mozhete
D d d d d d d d d d d d d d d d d d d d d d d
G Dm
E|------------3--------3--|1-----------1-----1-----|
H|3--------3------3----3--|----3-------3-----0-----|
G|----4---------4---------|--2------2--2-----2-----|
D|--5---------------------|0-----------------------|
A|------5-----------5-----|------0-----0-----0-----|
E|3-----------3-----------|------------------------|
Spat'
C
Am h/o
E|---------1-----------0--|
H|1-----01----1--------1--|
G|---2--------2--------2--| ----> (1)
D|------------------------|
A|0-----------0-----------|
E|------0-----------0-----|
Final:
Spite moi dorogie budet ne
G e e e e e e e e e e e d#c c c c c c c c c c c
C Adim
E|0-----------0-----------|2-----------5-----------|
H|----1----1------1----1--|----1----1------4----4--|
(2) g|--0------0----0------0--|--2------2----5------5--|
D|------------------------|1-----------4-----------|
A|3-----------3-----------|------0-----------0-----|
E|------3-----------3-----|------------------------|
Tak...
H
Em h/o
E|7----67--6--7--2--3-----|------------------------|
H|---0-----------------4--|5-----------------------|
G|------------------------|---3--4-----------------|
D|------------------------|---------4--5-----------|
A|------------------------|---------------6--7-----|
E|0-----------------------|---------------------6--|
A Am6 Em
E|0-----------0-----------|2-----------2-----------|3-----|
H|----2----2------2----2--|---1-----1------1----1--|0-----|
G|--2------2----2------2--|--2------2----2------2--|0-----|
D|------------------------|------------------------|2-----|
A|0-----------0-----------|0-----------0-----------|2-----|
E|------0-----------0-----|------0-----------0-----|0-----|
H/o - hammer-on.
1989




Ваше мнение



Капча