Tabbed by: Josh Montgomery ([email protected])

This song is pretty easy. The hardest part is getting the rhythm in the intro but it gets easier with practice. This is with an acoustic, so I don’t have any of the electric guitar riffs tabbed, but if anyone has them feel free to submit them.

Intro & Verse-
E-----------------------------------------
A------3-3-3-3-3-3--1--1-1--1-1-1-1-------
D-2-2--2-2-2-2-2-2--0--0-0--0-0-0-0-------
G-2-2--2-2-2-2-2-2--2--2-2--0-0-0-0-------
B-0-0--0-0-0-0-0-0--0--3-3--2-2-2-2-------
E-----------------------------------------

Hey there…
Let's get it on
Yeah, yeah…
I'll shut up…
Keep my end…
Let's get it on
Yeah, yeah…

Strum these chords like the intro until the chorus:

Am C Em/C
E--0----0-----0------------------
A--1----1-----0------------------
D--2----0-----0------------------
G--2----2-----2------------------
B--0----3-----3------------------
E--X----0-----0------------------

Sycophantic…
Are here at last
Yeah, yeah…

Chorus-

Em G A/D: [x 0 0 2 2 0]
So impossible Asus4: [0 0 2 2 3 0]
A/D Asus2 Em: [0 2 2 1 0 0]
The doubt in everything, on everything is G: [3 2 0 0 0 3]
Em G
So impossible
A/D Asus2
The doubt in everything, everything

Am, C, Em/C\
\
So load up - Strum these chords with this verse
Push is on /
Yeah, yeah…/

Chorus-

So impossible
Everything…
So impossible
D C
Down came your blackbird
F G
To suffer in my arms

Outro-
Am C
Down came your black bird
G
To suffer in my arms

As in my Jennis Song tab, I just improvised the chorus because I can’t hear the acoustic in it anymore. Any corrections or comments can be emailed to me at [email protected]




Ваше мнение



Капча