Guitar 1-Intro:
E|----------------|---------------|----------------|-----------------|
B|----------------|---------7-----|----------------|-----------------|
G|----8-------8---|-----4---------|-----8-----8----|-----4-----------|
D|5-6---6-5-------|-5-6---6-------|-5-6---6-5------|-5-6----6-9988-6-|
A|----------------|---------------|----------------|-----------------|
E|----------------|---------------|----------------|-----------------|


Guitar 2-Verses: (comes in half way through)
E|----------------|----------------|----------------|----------------|
B|----------------|----------------|----------------|----------------|
G|-------8-88-8-8-|-------6-66-6-6-|-------8-88-8-8-|----------------|
D|-6--6--8-88-8-8-|-2--2--6-66-6-6-|-6--6--8-88-8-8-|-44-44-44-444---|
A|-6--6--6-66-6-6-|-2--2--4-44-4-4-|-6--6--6-66-6-6-|-44-44-44-444---|
E|-4--4-----------|-0--0-----------|-4--4-----------|-22-22-22-222---|


Guitar 1-Verses:
E|----------------|---------------|----------------|-----------------|
B|----------------|---------7-----|----------------|-----------------|
G|----8-------8---|-----4---------|-----8-----8----|-----4-----------|
D|5-6---6-5-------|-5-6---6-------|-5-6---6-5------|-5-6----6-9988-6-|
A|----------------|---------------|----------------|-----------------|
E|----------------|---------------|----------------|-----------------|

E|----------------|---------------|----------------|-----------------|
B|----------------|---------7-----|----------------|-------3^--------|
G|----8-------8---|-----4---------|-----8-----8----|-----4-----------|
D|5-6---6-5-------|-5-6---6-------|-5-6---6-5------|-5-6-------------|
A|----------------|---------------|----------------|-----------------|
E|----------------|---------------|----------------|-----------------|

E|----------------|---------------|----------------|-----------------|
B|----------------|---------7-----|----------------|-----------------|
G|----8-------8---|-----4---------|-----8-----8----|-----4-----------|
D|5-6---6-5-------|-5-6---6-------|-5-6---6-5------|-5-6----6-9988-6-|
A|----------------|---------------|----------------|-----------------|
E|----------------|---------------|----------------|-----------------|

E|----------------|--------------|----------------|------------------|
B|----------------|---------7----|----------------|------------------|
G|----8-------8---|-----4--------|-----8-----8----|------------------|
D|5-6---6-5-------|-5-6---6------|-5-6---6-5------|------------------|
A|----------------|--------------|----------------|------------44446-|
E|----------------|--------------|----------------|-22244446666------|


Guitar 2-Choruses:
E|----------------|----------------|----------------|----------------|
B|----------------|----------------|----------------|----------------|
G|-4-4------------|----------------|-4-4------------|---hold---------|
D|-4-4--2--2-2--2-|-22-2-22-22-222-|-4-4--2--2-2--2-|-7--------------|
A|-2-2--2--2-2--2-|-22-2-22-22-222-|-2-2--2--2-2--2-|-7--------------|
E|------0--0-0--0-|-00-0-00-00-000-|------0--0-0--0-|-5--------------|


Guitar 1-Choruses:
E|----------------|----------------|----------------|------------------|
B|-----------hold-|-------(8)^-----|-----------hold-|------------77779-|
G|-7~~----8^------|--------------7-|-7~~----8^------|----66668888------|
D|----------------|----------------|----------------|-999--------------|
A|----------------|----------------|----------------|------------------|
E|----------------|----------------|----------------|------------------|

E|----------------|----------------|----------------|------------------|
B|-----------hold-|-------(8)^-----|----------hold--|----hold----------|
G|-7~~----8^------|--------------7-|-7~~----8^------|-8^----------r8---|
D|----------------|----------------|----------------|------------------|
A|----------------|----------------|----------------|------------------|
E|----------------|----------------|----------------|------------------|


Guitar 1-Solo:
E|-----9---------|-----12---------|-----9----------|-----12----------------|
B|----9-9---9^~--|---12--12---9^~-|----9-9---9^~---|---12--12-10-12121212~-|
G|-10----11------|-9-------11-----|-10----11-------|-9---------------------|
D|---------------|----------------|----------------|-----------------------|
A|---------------|----------------|----------------|-----------------------|
E|---------------|----------------|----------------|-----------------------|

E|-----9----------|-----12--------------|-----9----12-12---|
B|----9-9---9^~---|---12--12-10-12-12-12|----9-9--9--9--9--|
G|-10----11-------|-9-------------------|-10----9--------9-|
D|----------------|---------------------|------------------|
A|----------------|---------------------|------------------|
E|----------------|---------------------|------------------|

E|-77-77-77-77-7--|-77-77-77-77-7--|
B|-77-77-77-77-7--|-77-77-77-77-7--|
G|-77-77-77-77-7--|-77-77-77-77-7--|
D|-99-99-99-99-9--|-99-99-99-99-9--|
A|-77-77-77-77-7--|-77-77-77-77-7--|
E|-77-77-77-77-7--|-77-77-77-77-7--|


Guitar 2-Solo section:
E|----------------|----------------|----------------|
B|----------------|----------------|----------------|
G|-6-666----------|-------2-22-444-|-6-666----------|
D|-6-666-4-44444--|-2-222-2-22-444-|-6-666-4-44444--|
A|-4-444-4-44444--|-2-222-0-00-222-|-4-444-4-44444--|
E|-------2-22222--|-0-000----------|-------2-22222--|

E|----------------|-----------------|
B|----------------|-----------------|
G|----------------|-----------------|
D|----------------|-22-22-22-22-222-|
A|----------------|-22-22-22-22-222-|
E|----------------|-00-00-00-00-000-|


Guitar 1-Ending Section:
E|------------|------------------|------------------|------------------|
B|------------|------------77779-|----------------7-|--------------77--|
G|-7~-----8^--|----66668888------|----666688887777--|----6666777799--9-|
D|------------|-999--------------|-999--------------|-999--------------|
A|------------|------------------|------------------|------------------|
E|------------|------------------|------------------|------------------|
hold ---------------------------------------------------
E|----------------|----------------|----------------|
B|----------------|----------------|----------------|
G|----------------|----------------|----------------|
D|--9-------------|----------------|----------------|
A|----------------|----------------|----------------|
E|----------------|----------------|----------------|


Guitar 2-Ending Section:
E|----------------|----------------|----------------|----------------|
B|----------------|----------------|----------------|----------------|
G|-44--6--666---6-|-66-66--66-666--|----------------|----------------|
D|-44--6--666---6-|-66-66--66-666--|2222222222222222|2222222222222222|
A|-22--4--444---4-|-44-44--44-444--|2222222222222222|2222222222222222|
E|----------------|----------------|0000000000000000|0000000000000000|

hold --------------------------------------------
E|----------------|----------------|----------------|
B|----------------|----------------|----------------|
G|----------------|----------------|----------------|
D|--2-------------|----------------|----------------|
A|--2-------------|----------------|----------------|
E|--0-------------|----------------|----------------|




Ваше мнение



Капча